Oops, an error
Loading. Please wait.

Give Love A Try Tab

version 1
version 1

Interactive

288,401 views 51 this week
18 commentsread comments
1 2 3 4 5
x 13
add to favorites
launch autoscroll
font size
0
reset
how to read this tab
guitar tuner
Autoscroll
slow
fast
+/-
esc
set tempo
stop
Help us to improve Ultimate-Guitar.com Take our survey!
×
Author
[Intro]
e|--------------------|
B|--------------------|
G|--------4--5--------|
D|--------------------| (x2)
A|---3----------------|
E|--------------------|

[Verse]
e|-------------------------------------------------------------------|
B|-------------------------------------------------------------------|
G|-------4--5-------------4--5----------------4--5-----------4--5----|
D|-------------------------------------------------------------------|
A|---3----------------3-------------------3--------------3-----------|
E|-------------------------------------------------------------------|

e|-------------------------------------------|
B|-------------------------------------------|
G|-------5--4-----------------4--2-----------|
D|-------------------------------------------|
A|--3---------------------3------------------|
E|-------------------------------------------|

e|-------------------------|
B|-------------------------|
G|-------------4--5--------|
D|-------------------------| (x2)
A|-----3-------------------|
E|-------------------------|

e|-------------------------------------------------------------------|
B|-------------------------------------------------------------------|
G|-------4--5-------------4--5----------------4--5-----------4--5----|
D|-------------------------------------------------------------------|
A|---3--------------3-------------------3--------------3-------------|
E|-------------------------------------------------------------------|

e|----------------------------------------|
B|----------------------------------------|
G|--------5--4----------------4----2------|
D|----------------------------------------|
A|---3-------------------3----------------|
E|----------------------------------------|

e|---------------------|
B|---------------------|
G|---------4---5-------|
D|---------------------| (x2)
A|---3-----------------|
E|---------------------|

[Chorus]
e|-----------------------------------------------------------------|
B|-----------------------------------------------------------------|
G|-------5-5-------------------------3-3---------------------------|
D|-------5-5-----------5-5-----------3-3--------7-7----------------|
A|---3-----------------5-5--------1-------------7-7----------------|
E|-----------------3------------------------5----------------------|

e|------------------------------|
B|------------------------------|
G|-------5-5--------------------|
D|-------5-5------------5-5-----|
A|---3------------------5-5-----|
E|------------------3-----------|

e|---------------------------------------------------------|
B|---------------------------------------------------------|
G|--------3-3----------------------------------------------|
D|--------3-3------------------7-7---------------6-6-------|
A|----1------------------------7-7---------------6-6-------|
E|-------------------------5------------------4------------|

e|------------------------------------------------------------------------|
B|------------------------------------------------------------------------|
G|-------5-5--------------------------------------------------------------|
D|-------5-5------------5-5---------------------------7-7------------6~---|
A|---3------------------5-5---------------------------7-7------------6~---| (x2)
E|------------------3------------------------------5-----------------4~---|

e|---------------------------------------------------------------------------|
B|---------------------------------------------------------------------------| (x2)
G|-----------------4--5-------------4--5----------------4--5-----------4--5--|
D|---------------------------------------------------------------------------|
A|--------------3----------------3-------------------3--------------3--------|
E|---------------------------------------------------------------------------|

e|----------------------------------------|
B|----------------------------------------|
G|-------5--4-----------------4--2--------|
D|----------------------------------------|
A|--3---------------------3---------------|
E|----------------------------------------|

Yeahyeah                   Oooh
e|----------------------------------|
B|----------------------------------|
G|-------4--5-------------4--5------|
D|----------------------------------|
A|---3----------------3-------------|
E|----------------------------------|


************************************

| ~  Vibrato

************************************
Suggest correction
comments
print report bad tab
18 comments total. Showing first comments. show 1 bad comment
+5 reply
obiwankimobi 119 Apr 16, 2009 03:35 PM

check the chorus
overall good
and the jonas ROCK

+4 reply
obiwankimobi 119 Apr 16, 2009 03:35 PM

btw! the lyrics are:
You, are like driving on a Sunday
You, are like taking off on Monday
You, you're like a dream,
dream come true
I, just a face you never noticed
I, just trying to be honest
With myself
With you
With the world

You might think that I'm a fool
for falling over you
So tell me what can I do
To prove to you
That it's not so hard to do

Give love a try
One more time
Cause you know that I'm on your side
Give love a try
One more time
Yeah, yeah
Ooohh

:-)

guest
You may want to rate the tab now too:
select rating
Wanna post a correction for this tab? Suggest correction