Oops, an error
Loading. Please wait.

Give Love A Try Tab

version 1
version 1

Interactive

286,670 views 36 this week
18 commentsread comments
1 2 3 4 5
worth learning
x 13
add to favorites
launch autoscroll
font size
0
reset
how to read this tab
guitar tuner
Tab Pro tools
  • play this tab
  • loop segment
  • change instrument
  • show fretboard
  • metronome
×
Best way to learn
"Give Love A Try"
Autoscroll
slow
fast
+/-
esc
set tempo
stop
Contributor
This is the song from the JONAS tv-show that has its premiere on the 2nd of May. You can 
this song easily via YouTube.

It's basicly the same pattern whole song through but I didn't want to be
lazy and that's why I wrote it all down. Try to figure out the playing
pattern by listening to the song. I tried to put the lyrics where they
should be but they aren't perfect. You'll figure it out for sure! :3


E--------------------|
B--------------------|
G--------4--5--------|
D--------------------| x2
A---3----------------|
E--------------------| (intro)

E-------------------------------------------------------------------|
B-------------------------------------------------------------------|
G-------4--5-------------4--5----------------4--5-----------4--5----|
D-------------------------------------------------------------------|
A---3----------------3-------------------3--------------3-----------|
E-------------------------------------------------------------------|

You, You're like driving on a Sunday / You, You're like taking off on Monday

E-------------------------------------------|
B-------------------------------------------|
G-------5--4-----------------4--2-----------|
D-------------------------------------------|
A--3---------------------3------------------|
E-------------------------------------------|

You / You're like a dream / Dream come true.

E-------------------------|
B-------------------------|
G-------------4--5--------|
D-------------------------| x2
A-----3-------------------|
E-------------------------|

E-------------------------------------------------------------------|
B-------------------------------------------------------------------|
G-------4--5-------------4--5----------------4--5-----------4--5----|
D-------------------------------------------------------------------|
A---3--------------3-------------------3--------------3-------------|
E-------------------------------------------------------------------|

I, Just a face you never notice / I, Just trying to be honest with myself,

E----------------------------------------|
B----------------------------------------|
G--------5--4----------------4----2------|
D----------------------------------------|
A---3-------------------3----------------|
E----------------------------------------|

 With you        /      With the world.

E---------------------|
B---------------------|
G---------4---5-------|
D---------------------| x2
A---3-----------------|
E---------------------|

(Chorus)
E-----------------------------------------------------------------|
B-----------------------------------------------------------------|
G-------5-5-------------------------3-3---------------------------|
D-------5-5-----------5-5-----------3-3--------7-7----------------|
A---3-----------------5-5--------1-------------7-7----------------|
E-----------------3------------------------5----------------------|

You might think / That I'm a fool for falling over you

E------------------------------|
B------------------------------|
G-------5-5--------------------|
D-------5-5------------5-5-----|
A---3------------------5-5-----|
E------------------3-----------|

So tell me what can I do / To prove to you


E---------------------------------------------------------|
B---------------------------------------------------------|
G--------3-3----------------------------------------------|
D--------3-3------------------7-7---------------6-6-------|
A----1------------------------7-7---------------6-6-------|
E-------------------------5------------------4------------|

That's it's not so hard to do / Give love a try,

E------------------------------------------------------------------------|
B------------------------------------------------------------------------|
G-------5-5--------------------------------------------------------------|
D-------5-5------------5-5---------------------------7-7------------6~---|
A---3------------------5-5---------------------------7-7------------6~---|
E------------------3------------------------------5-----------------4~---|

One more time / Cause you know that I'm on your side / Give love a try,


E---------------------------------------------------------------------------|
B---------------------------------------------------------------------------|
G-----------------4--5-------------4--5----------------4--5-----------4--5--|
D---------------------------------------------------------------------------|
A--------------3----------------3-------------------3--------------3--------|
E---------------------------------------------------------------------------|

 One more time /

E----------------------------------------|
B----------------------------------------|
G-------5--4-----------------4--2--------|
D----------------------------------------|
A--3---------------------3---------------|
E----------------------------------------|

Yeahyeah                   Oooh

E----------------------------------|
B----------------------------------|
G-------4--5-------------4--5------|
D----------------------------------|
A---3----------------3-------------|
E----------------------------------|
comments
print report bad tab
18 comments total. Showing first comments. show 1 bad comment
+5 reply
obiwankimobi wrote on April 16 2009, 03:35 pm

check the chorus
overall good
and the jonas ROCK

+4 reply
obiwankimobi wrote on April 16 2009, 03:35 pm

btw! the lyrics are:
You, are like driving on a Sunday
You, are like taking off on Monday
You, you're like a dream,
dream come true
I, just a face you never noticed
I, just trying to be honest
With myself
With you
With the world

You might think that I'm a fool
for falling over you
So tell me what can I do
To prove to you
That it's not so hard to do

Give love a try
One more time
Cause you know that I'm on your side
Give love a try
One more time
Yeah, yeah
Ooohh

:-)

I want to post or [tab]
guest
You may want to rate the tab now too:
select rating
Please do not post tabs as comments. Select "correction" instead!