Oops, an error
Loading. Please wait.

Goodnight And Goodbye tab

version 1
version 1

Interactive

17,199 views 6 this week
5 commentsread comments
1 2 3 4 5
x 8
add to favorites
×
Save as Personal and add changes to this tab that will be seen only by you. Learn more ›
×
You can save this tab as Personal to edit and correct it or add notes. All changes will be seen only by you. Learn more »
launch autoscroll
font size
0
reset
how to read this tab
guitar tuner
edit
Autoscroll
slow
fast
+/-
esc
set tempo
stop
This whole part is being plucked. Use your thumb to pluck the bass notes and your middle 
index finger to pluck the higher notes.

e --------------------6---6---6---6---------------------------|
B ---5---5---5---5----6---6---6---6---5---5---5---5---3---3---|
G ---5---5---5---5--------------------5---5---5---5---3---3---|
D ------------------------------------------------------------|  x2
A ------------------5---5---5---5---3---3---3---3---2---2-----|
E -5---5---5---5----------------------------------------------|

Note: Nick Jonas, the person who normally plays this part of the song, usually bars the 
fret to do the first few notes. I personally find that harder. Whatever works for you is 
though.
Suggest correction
Creating personal tab
Creating personal tab
You can edit any tab online and save it as your Personal.

You can edit, replace or remove any tab part or add personal notes – all changes will be seen only by you.

Personal tabs can be accessed anytime from any device, even offline.
Learn more »
comments
print report bad tab
5 comments total. Showing first comments.
-1 reply
clud16 10 Aug 29, 2007 02:29 PM

the first four beats are right but then the b string should have a finger on the sixth fret, then fifth fret, then third and the last note is low e, b, and high e open.

0 reply
eroman620 111 Aug 30, 2007 07:44 AM

baddddddddddddddddd

+5 reply
musicbabejb 41 Nov 06, 2007 10:30 AM

nice try but im pretty sure its

e ------------------------------------------------------------|
B ---5---5---5---5----6---6---6---6---5---5---5---5---3-------|
G ---5---5---5---5----7---7---7---7---5---5---5---5---4-------|
D --------------------------------------------------------2---| x2
A ------------------5---5---5---5----3---3---3---3----2-------|
E -5---5---5---5----------------------------------------------|

guest
You may want to rate the tab now too:
select rating
Wanna post a correction for this tab? Suggest correction