Oops, an error
Loading. Please wait.

Goodnight And Goodbye tab

version 2
version 2

Interactive

16,883 views 1 this week
6 commentsread comments
1 2 3 4 5
x 8
add to favorites
×
Save as Personal and add changes to this tab that will be seen only by you. Learn more ›
×
You can save this tab as Personal to edit and correct it or add notes. All changes will be seen only by you. Learn more »
launch autoscroll
font size
0
reset
how to read this tab
guitar tuner
edit
Autoscroll
slow
fast
+/-
esc
set tempo
stop
Author
Difficulty
-------------------------------------------------------------------------------
                GOODNIGHT AND GOODBYE - Jonas Brothers
-------------------------------------------------------------------------------
Tabbed by:iluvjonasgurl
Email:----

Tuning:standard

this is difficult, pretty sure of the accuracy in most parts.
intro is mostly piano
verse one:
Nick Guitar:
e|---------------------------------------------------------------------------|
B|---------5----5----5----5----6----6----6----6----5----5----5---------------|
G|---------------------------------------------------------------------------|
D|---------------------------------------------------------------------------|
A|---------------------------5----5----5----5----3----3----3----3------------|
E|------5----5----5----5-----------------------------------------------------|
  
e|-----------------4---------------------------------------------------------|
B|------5-----5----5---------------------------------------------------------|
G|-----------------5------------------x2-------------------------------------|
D|-----------------4---------------------------------------------------------|
A|----2----2-----------------------------------------------------------------|
E|---------------------------------------------------------------------------|
  This has, been no walk in the park, i feel like we have, fallen apart,
  Open, up your eyes girl and see, how wonderful this love, could be.
*Chorus
Kevin's Guitar:
e|---------------------------------------------------------------------------|
B|---------------------------------------------------------------------------|
G|---------------------------------------------------------------------------|
D|------------------------------------2---4/5---1---2/3----------x2----------|
A|--2--3--1----4/5---2--3---1---4/5------------------------------------------|
E|---------------------------------------------------------------------------|
  Hold on tight, it's a roller coaster ride we're on so,
  Say goodbye, cuz it won't be back again

 Nick's Guitar:
e|--------------5------------------------------------------------------------|
B|--------------6------------------------------------------------------------|
G|-------9---7--7------------------------------------------------------------|
D|----9--9---7--7------------------------------------------------------------|
A|----9--7---5--5------------------------------------------------------------|
E|----7----------------------------------------------------------------------|
  Up and down, you're all around,
e|---------------------------------------------------------------------------|
B|---------------------------------------------------------------------------|
G|---------------------------------------------------------------------------|
D|----7----------------------------------------------------------------------|
A|----7--(keep strumming)----------------------------------------------------|
E|----5----------------------------------------------------------------------|
  Say goodnight, and goobye.

Nick Guitar:
e|---------------------------------------------------------------------------|
B|---------5----5----5----5----6----6----6----6----5----5----5---------------|
G|---------------------------------------------------------------------------|
D|---------------------------------------------------------------------------|
A|---------------------------5----5----5----5----3----3----3----3------------|
E|------5----5----5----5-----------------------------------------------------|
  
e|-----------------4---------------------------------------------------------|
B|------5-----5----5---------------------------------------------------------|
G|-----------------5---------------------------------------------------------|
D|-----------------4---------------------------------------------------------|
A|----2----2-----------------------------------------------------------------|
E|---------------------------------------------------------------------------|
  La La La, La La La La, La La La La.

verse Two:
Nick Guitar:
e|---------------------------------------------------------------------------|
B|---------5----5----5----5----6----6----6----6----5----5----5---------------|
G|---------------------------------------------------------------------------|
D|---------------------------------------------------------------------------|
A|---------------------------5----5----5----5----3----3----3----3------------|
E|------5----5----5----5-----------------------------------------------------|
  
e|-----------------4---------------------------------------------------------|
B|------5-----5----5---------------------------------------------------------|
G|-----------------5------------------x2-------------------------------------|
D|-----------------4---------------------------------------------------------|
A|----2----2-----------------------------------------------------------------|
E|---------------------------------------------------------------------------|
  You say, you didn't mean to break, my heart, but girl ya did, but i'm over it,
  Adieu, to you and all your games, all your crazy friends, this is the end.

*Chorus
Kevin's Guitar:
e|---------------------------------------------------------------------------|
B|---------------------------------------------------------------------------|
G|---------------------------------------------------------------------------|
D|------------------------------------2---4/5---1---2/3----------x2----------|
A|--2--3--1----4/5---2--3---1---4/5------------------------------------------|
E|---------------------------------------------------------------------------|
  Hold on tight, it's a roller coaster ride we're on so,
  Say goodbye, cuz it won't be back again

 Nick's Guitar:
e|--------------5------------------------------------------------------------|
B|--------------6------------------------------------------------------------|
G|-------9---7--7------------------------------------------------------------|
D|----9--9---7--7------------------------------------------------------------|
A|----9--7---5--5------------------------------------------------------------|
E|----7----------------------------------------------------------------------|
  Up and down, you're all around,
e|---------------------------------------------------------------------------|
B|---------------------------------------------------------------------------|
G|---------------------------------------------------------------------------|
D|----7----------------------------------------------------------------------|
A|----7--(keep strumming)----------------------------------------------------|
E|----5----------------------------------------------------------------------|
  Say goodnight, and goobye.

Nick Guitar:
e|---------------------------------------------------------------------------|
B|---------5----5----5----5----6----6----6----6----5----5----5---------------|
G|---------------------------------------------------------------------------|
D|---------------------------------------------------------------------------|
A|---------------------------5----5----5----5----3----3----3----3------------|
E|------5----5----5----5-----------------------------------------------------|
  
e|-----------------4---------------------------------------------------------|
B|------5-----5----5---------------------------------------------------------|
G|-----------------5---------------------------------------------------------|
D|-----------------4---------------------------------------------------------|
A|----2----2-----------------------------------------------------------------|
E|---------------------------------------------------------------------------|
  La La La, La La La La, La La La La.

  *insert Kevin's riff to the above:
e|---------------------------------------------------------------------------|
B|---------------------------------------------------------------------------|
G|------55--77--44--9--------------------------------------------------------|
D|------55--77--44--9--------------------------------------------------------|
A|------33--55--22--7/6/7----------------------------------------------------|
E|---------------------------------------------------------------------------|
  Bridge:
e|---------------------------------------------------------------------------|
B|---------------------------------------------------------------------------|
G|---------------------------------------------------------------------------|
D|--------------------2/3/2--------------------------------------------------|
A|-----3-------5-------------------------------------------------------------|
E|---------------------------------------------------------------------------|
  Oh, girl, i'm sorry for, disappointing you,

e|---------------------------------------------------------------------------|
B|---------------------------------------------------------------------------|
G|---------------------------------------------------------------------------|
D|----7----------------------------------------------------------------------|
A|----7--(keep strumming)----------------------------------------------------|
E|----5----------------------------------------------------------------------|
  But i'm done, with being up and down and all around... no more

*Chorus
Kevin's Guitar:
e|---------------------------------------------------------------------------|
B|---------------------------------------------------------------------------|
G|---------------------------------------------------------------------------|
D|------------------------------------2---4/5---1---2/3----------x2----------|
A|--2--3--1----4/5---2--3---1---4/5------------------------------------------|
E|---------------------------------------------------------------------------|
  Hold on tight, it's a roller coaster ride we're on so,
  Say goodbye, cuz it won't be back again

 Nick's Guitar:
e|--------------5------------------------------------------------------------|
B|--------------6------------------------------------------------------------|
G|-------9---7--7------------------------------------------------------------|
D|----9--9---7--7------------------------------------------------------------|
A|----9--7---5--5------------------------------------------------------------|
E|----7----------------------------------------------------------------------|
  Up and down, you're all around,
e|---------------------------------------------------------------------------|
B|---------------------------------------------------------------------------|
G|---------------------------------------------------------------------------|
D|----7----------------------------------------------------------------------|
A|----7--(keep strumming)----------------------------------------------------|
E|----5----------------------------------------------------------------------|
  Say goodnight, and goobye.

*listen to the song for placement, excetera. have fun with it. p.s., i love comments!

                                                   ---peace out, jonasgurl

            
            
Suggest correction
Creating personal tab
Creating personal tab
You can edit any tab online and save it as your Personal.

You can edit, replace or remove any tab part or add personal notes – all changes will be seen only by you.

Personal tabs can be accessed anytime from any device, even offline.
Learn more »
comments
print report bad tab
6 comments total. Showing first comments.
+1 reply
spdaniel91 42 Feb 07, 2008 08:50 AM

Um, I don't know the kevin's part of the chorus...

But the rest is awesome!

+1 reply
iluvjonasgurl 237 Feb 07, 2008 09:48 AM

yea, that part is a pain in the butt. not sure totally if it's right, just close! thanks.

0 reply
gurlyrockr96 31 Oct 13, 2008 05:15 PM

how in the world do u do the parts after the finger plucks?

guest
You may want to rate the tab now too:
select rating
Wanna post a correction for this tab? Suggest correction