Oops, an error
Loading. Please wait.

Goodnight And Goodbye tab

version 3
version 3

Interactive

1,363 views 1 this week
no commentswrite comment
1 2 3 4 5
2 more votes to show rating
add to favorites
×
Save as Personal and add changes to this tab that will be seen only by you. Learn more ›
×
You can save this tab as Personal to edit and correct it or add notes. All changes will be seen only by you. Learn more »
launch autoscroll
font size
0
reset
how to read this tab
guitar tuner
edit
Autoscroll
slow
fast
+/-
esc
set tempo
stop
Author
Difficulty
Goodnight And Goodbye Jonas Brothers
Tuning:standard (EADGBe)

Ive seen other tabs on these songs and some parts were correct. But thten they didn’t 
the intro solo. Or the chorus was wrong. And in the verse the treble notes are 2 strings 
pulled by your index and middle finger. Hope U guys like it.

Intro
e|--------------------------------------------------------------------------|
B|------5h-6 5--------------------------------------------------------------|
G|---------------7-5-4~-----------------------------------------------------|
D|--------------------------------------------------------------------------|
A|--------------------------------------------------------------------------|
E|--------------------------------------------------------------------------|
verse one:
Nick Guitar:
e|---------------------------------------------------------------------------|
B|---------5----5----5----5----6----6----6----6----5----5----5---------------|
G|---------5----5----5----5----7----7----7----7----5----5----5---------------|
D|---------------------------------------------------------------------------|
A|---------------------------5----5----5----5----3----3----3----3------------|
E|------5----5----5----5-----------------------------------------------------|

e|-----------------0---------|
B|------4-----4--------------|
G|------4-----4---------x2---|
D|---------------------------|
A|----2----2-----------------|
E|-----------------0---------|

*Chorus
Kevin's Guitar: Part 1
e|---------------------------------------------------------------------------|
B|---------------------------------------------------------------------------|
G|---------------------------------------------------------------------------|
D|---------------------------------------------------------------------------|
A|--7-8-9-10-5-6-7-8-2-3-4-5-4-3-2--------------x2---------------------------|
E|---------------------------------------------------------------------------|

 Nick's Guitar: Part 2
e|--------------5------------------------------------------------------------|
B|--------------6------------------------------------------------------------|
G|-------9---7--7------------------------------------------------------------|
D|----9--9---7--7------------------------------------------------------------|
A|----9--7---5--5------------------------------------------------------------|
E|----7----------------------------------------------------------------------|

e|-----------------------------------------------------------------------------|
B|-----------------------------------------------------------------------------|
G|-----------------------------------------------------------------------------|
D|----7------------------------------------------------------------------------|
A|----7--(keep strumming)------------------------------------------------------|
E|----5------------------------------------------------------------------------|


Nick Guitar:
Verse 2
Do verse 3 times

*Chorus
Kevin's Guitar: Part 1
Nick's Guitar:  Part 2

Verse
Nick Guitar: Verse x1

Kevin Guitar with verse
e|---------------------------------------------------------------------------|
B|---------------------------------------------------------------------------|
G|------55--77--44--9--------------------------------------------------------|
D|------55--77--44--9--------------------------------------------------------|
A|------33--55--22--7/6/7----------------------------------------------------|
E|---------------------------------------------------------------------------|
  Bridge:
e|---------------------------------------------------------------------------|
B|---------------------------------------------------------------------------|
G|---------------------------------------------------------------------------|
D|--------------------2/3/2--------------------------------------------------|
A|-----3-------5-------------------------------------------------------------|
E|---------------------------------------------------------------------------|

e|---------------------------------------------------------------------------|
B|---------------------------------------------------------------------------|
G|---------------------------------------------------------------------------|
D|----7----------------------------------------------------------------------|
A|----7--(keep strumming)----------------------------------------------------|
E|----5----------------------------------------------------------------------|

*Chorus
Kevin's Guitar: Part 1
Nick's Guitar: Part 2

So that wuz the tab pls give me 5 stars
Suggest correction
Creating personal tab
Creating personal tab
You can edit any tab online and save it as your Personal.

You can edit, replace or remove any tab part or add personal notes – all changes will be seen only by you.

Personal tabs can be accessed anytime from any device, even offline.
Learn more »
Give kudos to tab author, rate the tab!
1 2 3 4 5
comments
print report bad tab
guest
You may want to rate the tab now too:
select rating
Wanna post a correction for this tab? Suggest correction