Oops, an error
Loading. Please wait.

Gotta Find You chords

version 11
42,300 views 3 this week
2 commentsread comments
1 2 3 4 5
x 7
add to favorites
×
Save as Personal and add changes to this tab that will be seen only by you. Learn more ›
×
You can save this tab as Personal to edit and correct it or add notes. All changes will be seen only by you. Learn more »
launch autoscroll
font size
0
reset
transpose
0
reset
simplify chords
display chords
guitar tuner
edit
Autoscroll
slow
fast
+/-
esc
set tempo
stop
Strumming
There is no strumming pattern for this song yet. and get +5 IQ
Gotta Find You
Joe Jonas (Jonas Brothers)
Camp Rock Soundtrack
2008

*I HAVE LOOKED AT ALL OF THE OTHER TABS AND USING THE BEST
STUFF FROM EACH I HAVE COMPILED A "SUPER PERFECT VERSION"
THAT YOU CAN PLAY WITH OR WITHOUT A CAPO
*IM SURE THIS IS 100%
*HOPEFULLY YOU'LL COME ACROSS THIS TAB CUZ THE OTHER ONES
ARE RATED HIGH AND THEY AREN'T ALL TOTALLY CORRECT
*HAPPY PLAYING!


ACTUAL CHORDS USED:

e|--0---2----7---2---4---6---------4--|
B|--0---4----7---2---4---6---------5--|
G|--1---4----8---3---4---6----3----6--|
D|--2---4----9---4---6---8----3----6--|
A|--2---2-or-9---4---6---8-or-1----4--|
E|--0---x----7---2---4---6----x----x--|
    E   B    B   F# G#m Bbm  Bbm  C#m

(POWER CHORDS)

e|------------------------------------|
B|------------------------------------|
G|--1---4---------------------3----6--|
D|--2---4----9---4---6---8----3----6--|
A|--2---2-or-9---4---6---8-or-1----4--|
E|--0---x----7---2---4---6----x----x--|
    E   B    B   F# G#m Bbm  Bbm  C#m


{OPEN CHORDS WITH CAPO 4}

e|--3---3--------2---3---3---------3--|
B|--3---3--------3---3---3---------3--|
G|--0---0--------2---0---0---------2--|
D|--2---0--------0---2---0---------2--|
A|--3---2--------X---2---x---------0--|
E|--X---3--------X---0---2---------x--|
  Cadd9 G        D  Em7 G/F#    A7sus4



|||INTRO/BETWEEN CHORDS PICKING/YOU KNOW WHAT I MEAN LOL|||

NO CAPO

strumming
pattern     dudu d ud           dudu d ud       dudu d ud           du du

e|----------0000-2-22-----------2222-4-44-------0000-2-22-----------44-22-----------|
B|-2h4p2p0--0000-4-44--2h4p2p0--2222-4-44--2p0--0000-4-44--2h4p2p0--44-22--2h4p2p0--|
G|----------1111-4-44-----------3333-4-44-------1111-4-44-----------44-33-----------|
D|----------2222-4-44-----------4444-6-66-------2222-4-44-----------66-44-----------|
A|----------2222-2-22-----------4444-6-66-------2222-2-22-----------66-44-----------|
E|----------0000-x-xx-----------2222-4-44-------0000-x-xx-----------44-22-----------|

    
---------------------------------------------
[INTRO]

E  B  F#   G#m 
E  B  G#m  F# 
---------------------------------------------
[VERSE 1]

E
      B                F#            G#m    E 
Every time I think I'm closer to the heart
           B                  G#m   F#    E
Of what it means to know just who I am
             B               F#              G#m    E
I think I've finally found a better place to start
           B             G#m  F#       G#m 
But no one ever seems to understand
          F#     E                B     G#m
I need to try to get to where you are
         B          F#
Could it be, you're not that far
---------------------------------------------
[CHORUS 1]

           E            B
You're the voice I hear inside my head
F#                 (F#)
The reason that I'm singin'
          E         B
I need to find you
        F#         G#m
I gotta find you
E                  B
You're the missin' piece I need
F#                 G#m
The song inside of me
          C#m       
I need to find you
        F#
I gotta find you
         E  B  F#  G#m
(Oh yeah) 
              E  B  G#m  F#
(yeah-ee-yeah) 
---------------------------------------------
[VERSE 2]

E
           B          F#                G#m    E
You're the remedy I'm searchin' hard to find
           B             G#m F#      E 
To fix the puzzle that I see inside
         B                 F#            G#m    E
Painting all my dreams the color of your smile
       B                G#m F#      G#m
When I find you it will be alright
          F#     E                B      G#m
I need to try to get to where you are
         B          F#
Could it be, you're not that far
---------------------------------------------
[CHORUS 2]
           E            B
You're the voice I hear inside my head
F#                 (F#)
The reason that I'm singin'
          E         B
I need to find you
        F#         G#m
I gotta find you
E                  B
You're the missin' piece I need
F#                 G#m
The song inside of me
          C#m
I need to find you
        F#
I gotta find you
---------------------------------------------
[BRIDGE]

G#m
    Bbm
Been feelin' lost
B                       E    C#m
Can't find the words to say
                     F#                 G#m
Spendin' all my time stuck in yesterday
Bbm              B             E    C#m
Where you are is where I wanna be
               F#                 
Oh, next to you, you next to me
(piano)       E       B  G#m  F#
Oh, I need to find you, yeah
---------------------------------------------
[CHORUS 3]

           E            B
You're the voice I hear inside my head
F#                 (F#)
The reason that I'm singin'
          E         B
I need to find you (need to find you)
        F#        G#m
I gotta find you (yeah-ee-yeah)
E                  B
You're the missin' piece I need
F#                 G#m
The song inside of me
          C#m
I need to find you
        F#
I gotta find you (I gotta find you)
---------------------------------------------
[CHORUS 4 + END]

           E            B
You're the voice I hear inside my head
F#                  (F#)
The reason that I'm singin'
          E         B
I need to find you (need to find you)
        F#        G#m
I gotta find you (gotta find you)
E                  B
You're the missin' piece I need
F#                 G#m
The song inside of me
          C#m
I need to find you
        F#
I gotta find you

E  B 
F#  G#m
Yeah-ee-yeah

E  B
G#m        F#
Gotta find you
---------------------------------------------



END
====================================================================


{OPEN CHORDS WITH CAPO 4}

e|--3---3--------2---3---3---------3--|
B|--3---3--------3---3---3---------3--|
G|--0---0--------2---0---0---------2--|
D|--2---0--------0---2---0---------2--|
A|--3---2------------2---x---------0--|
E|------3------------0---2---------x--|
  Cadd9 G        D  Em7 G/F#    A7sus4


CAPO 4


strumming
pattern     dudu d ud           dudu d ud       dudu d ud           du du

e|----------3333-3-33-----------2222-3-33-------3333-3-33-----------33-22-----------|
B|----------3333-3-33-----------3333-3-33-------3333-3-33-----------33-33-----------|
G|-2h4p2p0--0000-0-00--2h4p2p0--2222-0-00--2p0--0000-0-00--2h4p2p0--00-22--2h4p2p0--|
D|----------2222-0-00-----------0000-2-22-------2222-0-00-----------22-00-----------|
A|----------3333-2-22-----------xxxx-2-22-------3333-2-22-----------22-xx-----------|
E|----------xxxx-3-33-----------xxxx-0-00-------xxxx-3-33-----------00-xx-----------|


---------------------------------------------
[INTRO]

Cadd9  G  D   Em7 
Cadd9  G  Em7 D 
---------------------------------------------
[VERSE 1]

Cadd9
      G                D             Em7    Cadd9 
Every time I think I'm closer to the heart
           G                  Em7    D    Cadd9
Of what it means to know just who I am
             G               D               Em7    Cadd9
I think I've finally found a better place to start
           G             Em7  D        Em7 
But no one ever seems to understand
          D      Cadd9            G     Em7
I need to try to get to where you are
         G          D 
Could it be, you're not that far
---------------------------------------------
[CHORUS 1]

           Cadd9        G
You're the voice I hear inside my head
D                  (D)
The reason that I'm singin'
          Cadd9     G
I need to find you
        D          Em7
I gotta find you
Cadd9              G
You're the missin' piece I need
D                  Em7
The song inside of me
          A7sus4       
I need to find you
        D 
I gotta find you
         Cadd9  G  D  Em7
(Oh yeah) 
              Cadd9  G  Em7  D
(yeah-ee-yeah) 
---------------------------------------------
[VERSE 2]

Cadd9
           G          D                 Em7    Cadd9
You're the remedy I'm searchin' hard to find
           G             Em7 D       Cadd9 
To fix the puzzle that I see inside
         G                 D             Em7    Cadd9
Painting all my dreams the color of your smile
       G                Em7 D       Em7
When I find you it will be alright
          D      Cadd9            G      Em7
I need to try to get to where you are
         G          D 
Could it be, you're not that far
---------------------------------------------
[CHORUS 2]
           Cadd9        G
You're the voice I hear inside my head
D                  (D)
The reason that I'm singin'
          Cadd9     G
I need to find you
        D          Em7
I gotta find you
Cadd9              G
You're the missin' piece I need
D                  Em7
The song inside of me
          A7sus4       
I need to find you
        D 
I gotta find you
---------------------------------------------
[BRIDGE]

Em7
    G/F#
Been feelin' lost
G                       Cadd9 A7sus4
Can't find the words to say
                     D                  Em7
Spendin' all my time stuck in yesterday
G/F#             G             Cadd9    Em7
Where you are is where I wanna be
               D                 
Oh, next to you, you next to me
(piano)       Cadd9   G  Em7  D
Oh, I need to find you, yeah
---------------------------------------------
[CHORUS 3]

           Cadd9        G
You're the voice I hear inside my head
D                  (D)
The reason that I'm singin'
          Cadd9     G
I need to find you (need to find you)
        D          Em7
I gotta find you  (yeah-ee-yeah)
Cadd9              G
You're the missin' piece I need
D                  Em7
The song inside of me
          A7sus4       
I need to find you
        D 
I gotta find you (I gotta find you)
---------------------------------------------
[CHORUS 4 + END]

           Cadd9        G
You're the voice I hear inside my head
D                  (D)
The reason that I'm singin'
          Cadd9     G
I need to find you (need to find you)
        D          Em7
I gotta find you  (gotta find you)
Cadd9              G
You're the missin' piece I need
D                  Em7
The song inside of me
          A7sus4       
I need to find you
        D 
I gotta find you

Cadd9  G 
D   Em7
Yeah-ee-yeah

Cadd9  G
Em7        D
Gotta find you
---------------------------------------------



END
Suggest correction
Creating personal tab
Creating personal tab
You can edit any tab online and save it as your Personal.

You can edit, replace or remove any tab part or add personal notes – all changes will be seen only by you.

Personal tabs can be accessed anytime from any device, even offline.
Learn more »
comments
print report bad tab
2 comments total.
+1 reply
bballgirlsl981 63 Jul 28, 2009 08:18 PM

fantastic tab! great job!!

0 reply
Tearsless 43 Jan 09, 2010 05:00 AM

yeah, realy good, thanx =3

guest
You may want to rate the tab now too:
select rating
Wanna post a correction for this tab? Suggest correction