Oops, an error
Loading. Please wait.

Hello Beautiful Tab

version 1
version 1

Whole song

Interactive

107,471 views 27 this week
33 commentsread comments
1 2 3 4 5
excellent!
x 51
add to favorites
launch autoscroll
font size
0
reset
how to read this tab
guitar tuner
Tab Pro tools
  • play this tab
  • loop segment
  • change instrument
  • show fretboard
  • metronome
×
Best way to learn
"Hello Beautiful"
Autoscroll
slow
fast
+/-
esc
set tempo
stop
Contributor
Difficulty
novice
-------------------------------------------------------------------------------
                             Hello Beautiful - Jonas Brothers
-------------------------------------------------------------------------------
Tabbed by: GuitarHead27
Email: powerunner1ac@yahoo.com

Tuning: Standard
~Listen to the song for strumming pattern.
~For the intro just strum the first chord (x79900) a couple times.
~This is only what Nick plays.


                     Hello beautiful  How's it going?         I hear it's wonderful in California
e|---------0-------------------------------0-----------------------------------|
B|---------0-------------------------------0-----------------------------------|
G|---------9-------------------------------9-----------------------------------|
D|---------9-------------------------------9-----------------------------------|
A|---------7-------------------------------6-----------------------------------|
E|---------x-------------------------------x-----------------------------------|

            I've been missing you           It's true
e|-------------0------------------0--------------------------------------------|
B|-------------0------------------0--------------------------------------------|
G|-------------6------------------6--------------------------------------------|
D|-------------6------------------7--------------------------------------------|
A|-------------4------------------7--------------------------------------------|
E|-------------x------------------5--------------------------------------------|

               But tonight I'm gonna fly              Yeah tonight I'm gonna fly
e|------------0---0--------0---------------0----0----------0-----------------------|
B|------------0---0--------0---------------0----0----------0-----------------------|
G|------------9---9--------6---------------9----9----------6-----------------------|
D|------------9---9--------7---------------9----9----------7-----------------------|
A|------------7---6--------7---------------7----6----------7-----------------------|
E|------------x---x--------5---------------x----x----------5-----------------------|

              Cause I could go across the world       See everything and never be satisfied
e|------0--------------0--------------------0-----------0-------0-------------------|
B|------0--------------0--------------------0-----------0-------0-------------------|
G|------6--------------6--------------------4-----------4-------3-------------------|
D|------6--------------6--------------------4-----------4-------4-------------------|
A|------4--------------3--------------------2-----------1-------4-------------------|
E|------x--------------x--------------------x-----------x-------2-------------------|

           If I couldn't see those eyes
e|-------0------0--------0------------------------------------------------------|
B|-------0------0--------0------------------------------------------------------|
G|-------6------8--------9------------------------------------------------------|
D|-------7------9--------9------------------------------------------------------|
A|-------7------9--------7------------------------------------------------------|
E|-------5------7--------x------------------------------------------------------|

                    Hello beautiful    It's been a long time
e|---------0------------------------------------------------------------------|
B|---------0------------------------------------------------------------------|
G|---------9------------------------------------------------------------------|
D|---------9------------------------------------------------------------------|
A|---------7------------------------------------------------------------------|
E|---------x------------------------------------------------------------------|

                  Since my phone's rung   You've been on that line
e|--------0-------------------------------------------------------------------|
B|--------0-------------------------------------------------------------------|
G|--------9-------------------------------------------------------------------|
D|--------9-------------------------------------------------------------------|
A|--------6-------------------------------------------------------------------|
E|--------x-------------------------------------------------------------------|

Then it's the same from here, except on the last word "Eyes" I'm not exactly
sure what they end on, but I end it on E (022100).

rest of the lyrics:
I've been missing you?It's true

But tonight I'm gonna fly?Yeah tonight, I'm gonna fly, oh yeah?Cause I could go across
world?See everything and never be satisfied?If I couldn't see those eyes

Hope you enjoyed it! Rate it, leave comments, & suggestions. Thanks!


===============================================================================
comments
print report bad tab
33 comments total. Showing first comments.
0 reply
bittahsweet wrote on February 2 2007, 09:37 pm

ah. wicked tab :)

0 reply
JooWonderland wrote on February 18 2007, 07:42 am

Can't you please post the chords like "G, E, A, etc..."
It will make things easier for me =P

0 reply
GuitarHead27 wrote on March 11 2007, 03:08 am

I don't really know the chord names...i tabbed this out by ear and watching them play it in their video, sorry. Maybe you could check out a chord finding site, just type in "chord finder" on Google. Hope that helps.

and Thanks bittahsweet.

I want to post or [tab]
guest
You may want to rate the tab now too:
select rating
Please do not post tabs as comments. Select "correction" instead!