Oops, an error
Loading. Please wait.

Hello Beautiful tab

version 2
version 2

Whole song

Interactive

18,381 views 1 this week
7 commentsread comments
1 2 3 4 5
x 10
add to favorites
×
Save as Personal and add changes to this tab that will be seen only by you. Learn more ›
×
You can save this tab as Personal to edit and correct it or add notes. All changes will be seen only by you. Learn more »
launch autoscroll
font size
0
reset
how to read this tab
guitar tuner
edit
Autoscroll
slow
fast
+/-
esc
set tempo
stop
Author
Difficulty
------------------------------------------------------------------------
           Hello Beautiful (Kevin's Part) - Jonas Brothers
------------------------------------------------------------------------
Tabbed by:GuitarHead27
Email:powerunner1ac@yahoo.com

Tuning:standard (EADGBe)

This is the part Kevin plays while Nick does rhythm. I'm not 100% it's
right but it sounds pretty good. 

I used the audio from this performance:
http://youtube.com/watch?v=cxQcym-nwS0


 "Hello beautiful how's it going" 
 "Hello beautiful it's been a long time"   
e|---------------------------------|
B|---------5-4---------------------|
G|-----4h6-----4-4~----------------|
D|---------------------------------|
A|---------------------------------|
E|---------------------------------|

 "I hear it's wonderful..."
 "Since my phones rung..."        "I've been missing you, It's true"
e|---------------------0~---0~----------0------------|
B|---------5-4-------------------------2-------------|
G|-----4h6-------4-4/6---4/6----------2--------------|
D|-----------------------------------2---------------|
A|----------------------------------0----<-on "true"-|
E|---------------------------------------------------|

 "But tonight, I'm gonna fly" 
e|-------0---0---0---0---4---4---4---4------0---------------|
B|-----0---0---0---0---0---0---0---0--------2---------------|
G|------------------------------------------2---<-on "fly"--|
D|------------------------------------------2----(strum w/)-|
A|------------------------------------------0----(  Nick  )-|
E|----------------------------------------------------------|
   ^same for the line "Yeah, tonight..."

 "Cause I could comb across the world..." 
e|-----0------0------0------0------0--0~------------------|
B|-----0------0------0------0------0----------------------|
G|-----6------6------4------4------3----------------------|
D|-----6------6------4------4------4----------------------|
A|-----4------3------2------1------4----------------------|
E|---------------------------------2-----<-on "satisfied"-|

 "If I couldn't see those eyes"
e|-----0------0-----------0-------------------------------------------|
B|-----0------0----------0--------------------------------------------|
G|-----6------8---------1-----<-at the ending, pick that.-------------|
D|-----7------9--------2----------on first time stop & let Nick play--|
A|-----7------9-------2-----------------------------------------------|
E|-----5------7------0------------------------------------------------|

Hope you enjoyed it
Rate & Comment. 


| /  slide up
| \  slide down
| h  hammer-on
| p  pull-off
| ~  vibrato
| +  harmonic
| x  Mute note
=========================================================================

            
            
Suggest correction
Creating personal tab
Creating personal tab
You can edit any tab online and save it as your Personal.

You can edit, replace or remove any tab part or add personal notes – all changes will be seen only by you.

Personal tabs can be accessed anytime from any device, even offline.
Learn more »
comments
print report bad tab
7 comments total. Showing first comments.
0 reply
iluvjonasgurl 237 Jan 22, 2008 01:23 PM

Yay! been waiting! totally correct :-)

0 reply
GuitarHead27 136 Jan 22, 2008 10:11 PM

i made a [kinda crappy =P] video of me showing how to play this....i dunno if i should upload it.

0 reply
GuitarHead27 136 Feb 11, 2008 11:10 PM

just realized in the part below, you pluck on the 4th fret
on the B sting NOT the e sting.

So it should be...

"But tonight, I'm gonna fly"
e|-------0---0---0---0---0---0---0---0------0---------------|
B|-----0---0---0---0---4---4---4---4--------2---------------|
G|------------------------------------------2---

guest
You may want to rate the tab now too:
select rating
Wanna post a correction for this tab? Suggest correction