Oops, an error
Loading. Please wait.

Hey Baby tab

version 2
version 2

Whole song

3,693 views 3 this week
1 commentread comment
1 2 3 4 5
x 3
add to favorites
×
Save as Personal and add changes to this tab that will be seen only by you. Learn more ›
×
You can save this tab as Personal to edit and correct it or add notes. All changes will be seen only by you. Learn more »
launch autoscroll
font size
0
reset
how to read this tab
guitar tuner
edit
Autoscroll
slow
fast
+/-
esc
set tempo
stop
Difficulty
-------------------------------------------------------------------------------
                             HEY BABY - Jonas Brothers
-------------------------------------------------------------------------------
Tabbed by: gummybearsryum

Tuning: Standard

This is my first tab, I think most of it sounds 100% correct.
It's just the chords not the solo.
Comment if you have corrections! :)

Intro/Verse 1:
e|------------------------------------------------|
B|------------------------------------------------|
G|---4---4----------------------------------------|x5
D|---4---4-4-4--4/5--5-5-5------------------------|
A|---2---2-4-4--4/5--3-3-3------------------------|
E|---------2-2--2/3--3-3-3------------------------|

Hey baby, why you treatin' me bad?

Hey darlin', know you make me mad
I'm going crazy, trying to figure out
Why you are


Pre-Chorus 1:
e|---------------------------------------------------|
B|---------------------------------------------------|
G|---------------------------------------------------|
D|---2-2-2---5-5----7-7------022-x8----4-------------|
A|---2-2-2---5-5----7-7------022-------4-------------|
E|-----------3-3----5-5----------------2-------------|

leavin', give me a reason

Say that you need me,
I know you're deceiving,
The lies that you feeding will leave you alone.


Chorus:
e|----------------------------------------------------|
B|----------------------------------------------------|
G|---4-----7------------------------------------------|
D|---4--2--7---7---8----------------------------------| x2
A|---2--2--5---7---8----------------------------------|
E|-------------5---6----------------------------------|

Please don't ask me to go
I'm already gone
I'm already gone (Oh)
Please just leave me alone
I'm already gone
I'm already gone (Ohh)


Verse 2:
e|------------------------------------------------|
B|------------------------------------------------|
G|---4---4----------------------------------------|x3
D|---4---4-4-4--4/5--5-5-5------------------------|
A|---2---2-4-4--4/5--3-3-3------------------------|
E|---------2-2--2/3--3-3-3------------------------|

Hey baby, what's the matter with you?

Hey darlin', know your love isn't true
I'm going crazy, trying to figure out
Why you are

Pre-Chorus 2:
e|-------------------------------------------------|
B|-------------------------------------------------|
G|-------------------------------------------------|
D|---2-2-2---5-5----7-7----------------------------|
A|---2-2-2---5-5----7-7----------------------------|
E|-----------3-3----5-5----------------------------|

leavin'
Give me a reason


Verse 3:
e|------------------------------------------------|
B|------------------------------------------------|
G|---4---4----------------------------------------|x3
D|---4---4-4-4--4/5--5-5-5------------------------|
A|---2---2-4-4--4/5--3-3-3------------------------|
E|---------2-2--2/3--3-3-3------------------------|

Hey baby, why you bein' a fool?

Hey Darlin', always been good to you
I'm going crazy (going crazy), trying to figure out
Why you are


Pre-Chorus 3:
e|---------------------------------------------------|
B|---------------------------------------------------|
G|---------------------------------------------------|
D|---2-2-2---5-5----7-7------022-x8----4-------------|
A|---2-2-2---5-5----7-7------022-------4-------------|
E|-----------3-3----5-5----------------2-------------|

leavin'
Give me a reason

Say that you need me,
I know you're deceiving,
The lies that you feeding will leave you alone.

Chorus:
e|----------------------------------------------------|
B|----------------------------------------------------|
G|---4-----7------------------------------------------|
D|---4--2--7---7---8----------------------------------| x2
A|---2--2--5---7---8----------------------------------|
E|-------------5---6----------------------------------|

Please don't ask me to go
I'm already gone
I'm already gone (Oh)
Please just leave me alone
I'm already gone
I'm already gone (Ohh)


(Solo)


Bridge:
e|---------------------------------------------------------|
B|---------------------------------------------------------|
G|---4--------------------4---4----------------------------|
D|---4----4---5----2x-----4---4-4-4--4/5-5-5-5-------------|
A|---2----4---5-----------2---2-2-2--2-3-3-3-3-------------|
E|--------2---3-----------------2-2--2-3-3-3-3-------------|

Hey baby, why you treatin' me bad?

Hey darlin', know you make me mad
I'm going crazy, trying to figure out
Why you are


Pre-Chorus 4:
e|---------------------------------------------------|
B|---------------------------------------------------|
G|---------------------------------------------------|
D|---2-2-2---5-5----7-7------022-x12-----------------|
A|---2-2-2---5-5----7-7------022---------------------|
E|-----------3-3----5-5------------------------------|

leavin'
Give me a reason,
Yeah

Say that you need me,
I know you're deceiving,
The lies that you feeding will leave you, the feeling of misery, baby it's terrible
I need you to leave me alone


Chorus:
e|----------------------------------------------------|
B|----------------------------------------------------|
G|---4-----7------------------------------------------|
D|---4--2--7---7---8----------------------------------| x2
A|---2--2--5---7---8----------------------------------|
E|-------------5---6----------------------------------|

Please don't ask me to go
I'm already gone
I'm already gone (Oh)
Please just leave me alone
I'm already gone
I'm already gone (Ohh)
No, yeahhhh


(Solo)


Outro:
e|-----------------------------------|
B|-----------------------------------|
G|---4---7-4-------------------------|
D|---4---7-4-------------------------|
A|---2---5-2-------------------------|
E|-----------------------------------|

Hey baby!

ALSO!! In the chorus you can play either
e|--------|     e|--------|
B|--------|     B|--------|
G|--------| or  G|---9----|
D|---2----|     D|---9----|
A|---2----|     A|---7----|
E|--------|     E|--------|

| /  slide up
| \  slide down
| h  hammer-on
| p  pull-off
| ~  vibrato
| +  harmonic
| x  Mute note
===============================================================================

            
            
Suggest correction
Creating personal tab
Creating personal tab
You can edit any tab online and save it as your Personal.

You can edit, replace or remove any tab part or add personal notes – all changes will be seen only by you.

Personal tabs can be accessed anytime from any device, even offline.
Learn more »
Give kudos to tab author, rate the tab!
1 2 3 4 5
comments
print report bad tab
1 comment total.
0 reply
xxGUITARZER0xx 1,184 Sep 04, 2009 04:11 PM

sorry its still off in the chorus. I have tabbed many songs, And this is wrong!

guest
Wanna post a correction for this tab? Suggest correction