Oops, an error
Loading. Please wait.

Lines Vines And Trying Times Tab

23,452 views 3 this week
6 commentsread comments
1 2 3 4 5
excellent!
x 22
add to favorites
launch autoscroll
font size
0
reset
how to read this tab
guitar tuner
Autoscroll
slow
fast
+/-
esc
set tempo
stop
Help us to improve Ultimate-Guitar.com Take our survey!
×
Author
Difficulty
intermediate
Song List in this tab!

1.   World War III
2.   Fly With Me
3.   Paranoid
4.   Poison Ivy
5.   Before the Storm
6.   What Did I Do To Your Heart
7.   Much Better
8.   Black Keys
9.   Don’t Charge Me For the Crime
10.  Turn Right
11.  Don’t Speak
12.  Keep It Real
13. Hey Baby


Spongebobs400s@hotmail.com

Thanks!
Enjoy

Hope you enjoy it and I hope this gets your 5 Star approval!
----------------------------------------------------------------------------
1.			     World War III (3) - Jonas Brothers
----------------------------------------------------------------------------

Credit to: Me


Tuning:Standard


Intro - Guitar 1
(x = mute all strings and strum (heavy distortion makes the best tone/sound)
e|-xxxxxx---------------------------------------|
B|-xxxxxx---------------------------------------|
G|-xxxxxx-44-44-44-44-----------------------3/4-|
D|-xxxxxx-44-44-44-44--22-22-22-22--55-5/4--3/4-|x2
A|-xxxxxx-22-22-22-22--22-22-22-22--55-5/4--1/2-|
E|-xxxxxx--------------00-00-00-00--33-3/2------|


Intro - Guitar 2 (this combines the horns..Synth...and second guitar)
There is two dashes in between where the horns and synth change
e|-xxxxxx--------------xx-------------------------------------|
B|-xxxxxx-7------------xx-7---------------7-------------------|
G|-xxxxxx---9/11/9-7---xx---9/11/9-7--------9-7------9-7-9/11-|
D|-xxxxxx------------9-xx------------9-7--------9-------------|
A|-xxxxxx--------------xx-------------------------------------|
E|-xxxxxx--------------xx-------------------------------------|

Continued Below

e|--------------xx----------------------------------------|
B|-7------------xx-7-------------7-------7----------------|
G|---9/11/9-7---xx---9/11/9-7------9-7-----9-7-9/11~~-3-4~|
D|------------9-xx------------9--------9------------------|
A|--------------xx----------------------------------------|
E|--------------xx----------------------------------------|


Verse - Both Guitars
e|------------------------------|
B|------------------------------|
G|------3/4-------3/4-------3/4-|
D|-5\4--3/4--5\4--3/4--5\4--3/4-|x 2
A|-5\4--1/2--5\4--1/2--5\4--1/2-|
E|-3\2-------3\2-------3\2------|

continued below after doing that section twice

e|-----------------|
B|-----------------|
G|------3/4--------|
D|-5\4--3/4--5\4-5-|
A|-5\4--1/2--5\4-5-|
E|-3\2-------3\2-3-|

Pre Chorus - Both Guitars
e|-----------------|
B|-----------------|
G|---------------2-|
D|-2~~-5~~-2~~-5-2-|
A|-2~~-5~~-2~~-5-0-|
E|-0~~-3~~-0~~-3---|


Chorus - Both Guitars (sorry could not figure out the horns!)
e|---------------------------------------|
B|---------------------------------------|
G|-44-44-44-44-----------------------3/4-|
D|-44-44-44-44--22-22-22-22--55-5/4--3/4-| x2
A|-22-22-22-22--22-22-22-22--55-5/4--1/2-|
E|--------------00-00-00-00--33-3/2------|


After - Chorus - Guitar 1 is the same as the intro so
e|---------------------------------------|
B|---------------------------------------|
G|-44-44-44-44-----------------------3/4-|
D|-44-44-44-44--22-22-22-22--55-5/4--3/4-|x2
A|-22-22-22-22--22-22-22-22--55-5/4--1/2-|
E|--------------00-00-00-00--33-3/2------|


After - Chorus - Guitar 2 (this combines the horns..Synth...and second guitar)
There is two dashes in between where the horns and synth change
e|--------------xx-----------------------------------|
B|-7------------xx-7---------------7-----------------|
G|---9/11/9-7---xx---9/11/9-7--------9-7----9-7-9/11-|
D|------------9-xx------------9-7--------9-----------|
A|--------------xx-----------------------------------|
E|--------------xx-----------------------------------|

Continued Below

e|--------------xx-------------------------------------|
B|-7------------xx-7-------------7--------7------------|
G|---9/11/9-7---xx---9/11/9-7------9-7------9-7-9/11~~-|
D|------------9-xx------------9--------9---------------|
A|--------------xx-------------------------------------|
E|--------------xx-------------------------------------|


repeat the verse

repeat the chorus


Bridge - Both guitars    (x means mute the string or no to play it!)
e|-------------------------------------------|
B|-------------------------------------------|
G|-------------------44--44----------4/3-6-4-|
D|-2~-5~-2~--55--77--44--44-2222--5~-x-x-x-x-|
A|-2~-5~-2~--55--77--22--22-2222--x--2/1-4-2-|
E|-0~-3~-0~--33--55---------0000--3~---------|


Repeat the chorus and intro thingy...

Then do this! (outro)
e|---------------------------|
B|---------------------------|
G|-----------------4-4~-4-44-|
D|-5/4-55-5/7-55-5-4-4~-2-22-|
A|-5/4-55-5/7-55-5-2-2--2-22-|
E|-3/2-33-3/5-33-3-----------|


----------------------------------------------------------------------------
2.			     Fly With Me - Jonas Brothers
----------------------------------------------------------------------------
Credit to - Me

Intro part 1:
e|----------------------|
B|----------------------|
G|--5-5-7-7-9-9-7-7-----|
D|--x-x-x-x-x-x-x-x-----| x2
A|--3-3-5-5-7-7-5-5-----|
E|----------------------|


Intro part 2 and verse:
e|----------------------|
B|----------------------|
G|---5~-----------------|
D|---5~--5~--3~--7~--5~-| x3
A|---3~--5~--3~--7~--5~-|
E|-------3~--1~--5~--3~-|


Chorus:
e|------------------------------------------------------------------------|
B|------------------------------------------------------------------------|
G|--5555555555555555------------------------------------------------------|
D|--5555555555555555-555555555555555-333333333333333-77777777-55555555----|
A|--3333333333333333-555555555555555-333333333333333-77777777-55555555----|
E|-------------------333333333333333-111111111111111-55555555-33333333----|

Post-Chorus:
e|----------------------|
B|----------------------|
G|-5--------------------|
D|-5---5---3---7---5----|
A|-3---5---3---7---5----|
E|-----3---1---5---3----|


Chorus:
e|------------------------------------------------------------------------|
B|------------------------------------------------------------------------|
G|--5555555555555555------------------------------------------------------|
D|--5555555555555555-555555555555555-333333333333333-77777777-55555555----|
A|--3333333333333333-555555555555555-333333333333333-77777777-55555555----|
E|-------------------333333333333333-111111111111111-55555555-33333333----|


Bridge:
e|------------------------------|
B|------------------------------|
G|-5~---------------------------|
D|-5~--5~--3~--7~--5~--7~--5~---|
A|-3~--5~--3~--7~--5~--7~--5~---|
E|-----3~--1~--5~--3~--5~--3~---|


Piano Slow Part – Converted to guitar
e|-----------------------------------------------------3~-|
B|-----------------------------------------------------3~-|
G|-----5---4---5-------5---4---5-----5---4---5-----5---4~-|
D|---5---5---5---5---5---5---5-----5---5---5-----5---5-5~-|
A|-3---------------------------------------------------5~-|
E|----------------3--------------1-------------5-------3~-|

-----------------------------Key Change------------------------------------

Chorus:
e|-------------------------------------------------------------------|
B|-------------------------------------------------------------------|
G|-777777777777777---------------------------------------------------|
D|-777777777777777-777777777777777-555555555555555-99999999-77777777-|
A|-555555555555555-777777777777777-555555555555555-99999999-77777777-|
E|-----------------555555555555555-333333333333333-77777777-55555555-|

Solo:
e|--------------------------------------------------------7---------------|
B|---------------------7--10~--7-----------------------7-----7------------|
G|--7~~----7-----7--9-------------9~~------7-----7--9-----------9--7------|
D|------7-----7-------------------------7-----7-----------------------9---|
A|------------------------------------------------------------------------|
E|------------------------------------------------------------------------|

e|-----------------------------------12b14r12~~~~~------------------------|
B|--------------------------------7---------------------------------------|
G|--------------------------7--9------------------------------------------|
D|--9--7--------------7--9------------------------------------------------|
A|--------7/9~~----9------------------------------------------------------|
E|------------------------------------------------------------------------|

B = Bend
R = Release

CAN ALSO BE PLAYED LIKE THIS!

e|-----------------------------------|
B|------------------------10---------|
G|---------------------11----9b11r9--|
D|------12p11-12p11------------------|
A|-20/--------------12---------------|
E|-----------------------------------|

E|----------------------------------------------------------------|
B|-------------------12-----------------------------------7---17~-|
G|----------------11----9b11r9-7----------------------7-9---------|
D|-12p11-12p11-------------------9--7h9p7-5-4-----7-9-------------|
A|-------------12-----------------------------6/9-----------------|
E|----------------------------------------------------------------|

/ = a slide
~ = Vibrato = wiggle your finger on the fret to make the sound different.
p = pull off
h = hammeron
b = bend
r = release bend

Chorus 1:
e|----------------------------------x--------------------------------------|
B|----------------------------------x--------------------------------------|
G|-777777777777777------------------x--------------------------------------|
D|-777777777777777-7777777777777777-x-5555555555555555-999999999-777777777-|
A|-555555555555555-7777777777777777-x-5555555555555555-999999999-777777777-|
E|-----------------5555555555555555-x-3333333333333333-777777777-555555555-|


Chorus 2:
e|-------------------------------------------------|
B|-------------------------------------------------|
G|-777777777777777---------------------------------|
D|-777777777777777-777777777777777-555555555555555-|
A|-555555555555555-777777777777777-555555555555555-|
E|-----------------555555555555555-333333333333333-|

e|---------------------------------------|
B|---------------------------------------|
G|-------------7777--------------5~------|
D|--9999-7777--7777-7777--5~~----7~------|
A|--9999-7777--5555-7777--5~~----7~------|
E|--7777-5555-------5555--3~~----5~------|

outro:
e|-------------------------|
B|-------------------------|
G|--7-7-9-9-11-11-9-9--7---|
D|--x-x-x-x-x--x--x-x--5---|
A|--5-5-7-7-9--9--7-7--5---|
E|-------------------------|


----------------------------------------------------------------------------
3.			     Paranoid - Jonas Brothers
----------------------------------------------------------------------------
Credit to – Team Jonas and Me

Intro:
e|-------------------------------------------|
B|-------------------------------------------|
G|-------------------------------------------|
D|-------------------------------------------|
A|--888-6666-----------888-6666--------------|
E|-----------666666666----------666666666----|

Verse:
e|-------------------------------------------|
B|-------------------------------------------|
G|-------------------------------------------|
D|-------------------------------------------|   x4
A|--888-6666-----------888-6666--------------|
E|-----------666666666----------666666666----|

Pre-Chorus:
e|--------------|
B|--------------|
G|-----5~----8--|
D|--5~-5~-5~-8~-|
A|--5~-3~-5~-6~-|
E|--3~----3~----|

Chorus
e|-----------------------------------------------|
B|-----------------------------------------------|
G|--101010-8888-----------101010-8888------------|
D|--101010-8888-888888888-101010-8888-888888888--|   x2
A|--8-8-8--6666-888888888-8-8-8--6666-888888888--|
E|--------------666666666-------------666666666--|

Post-Chorus:
e|-----------------------------------------|
B|-----------------------------------------|
G|-----------------------------------------|
D|-----------------------------------------|
A|--888-6666-----------888-6666------------|
E|-----------666666666----------666666666--|

Verse:
e|-----------------------------------------|
B|-----------------------------------------|
G|-----------------------------------------|
D|-----------------------------------------|   x4
A|--888-6666-----------888-6666------------|
E|-----------666666666----------666666666--|

Pre-Chorus:
e|--------------|
B|--------------|
G|-----5~----8--|
D|--5~-5~-5~-8~-|
A|--5~-3~-5~-6~-|
E|--3~----3~----|

Chorus:
e|-----------------------------------------------|
B|-----------------------------------------------|
G|--101010-8888-----------101010-8888------------|
D|--101010-8888-888888888-101010-8888-888888888--|   x4
A|--8-8-8--6666-888888888-8-8-8--6666-888888888--|
E|--------------666666666-------------666666666--|

Bridge:
e|--------------------------------------------|
B|--------------------------------------------|
G|--------------------------------------------|
D|--66666666-88888888---------------6---------|	x2
A|--66666666-88888888-8-8-6h8-6h8-8---8-6h8-8-|
E|--44444444-66666666-------------------------|

e|------------------------------------------------------------------x-|
B|------------------------------------------------------------------x-|
G|------------------------------------------------------------------x-|
D|--66666666-88888888-55555555-44444444-4~----------------6---------x-|
A|--66666666-88888888-55555555-44444444-4~--8-8-6h8-6h8-8---8-6h8-8-x-|
E|--44444444-66666666-33333333-22222222-2~--------------------------x-|

Chorus:
e|-----------------------------------------------|
B|-----------------------------------------------|
G|--101010-8888-----------101010-8888------------|
D|--101010-8888-888888888-101010-8888-888888888--|   x4
A|--8-8-8--6666-888888888-8-8-8--6666-888888888--|
E|--------------666666666-------------666666666--|

Outro:
e|----------------------------------------------x-|
B|----------------------------------------------x-|
G|--101010-8888-----------101010-8888-----------x-|
D|--101010-8888-888888888-101010-8888-888888888-x-|
A|--8-8-8--6666-888888888-8-8-8--6666-888888888-x-|
E|--------------666666666-------------666666666-x-|

----------------------------------------------------------------------------
4.			     POISON IVY - JONAS BROTHERS
----------------------------------------------------------------------------
Credit to: Me

Tuning:Standard


(Intro Guitar 1)Part 1
e|--------------------|
B|--------------------|
G|----------5555-7777-|
D|-55555555-5555-7777-|
A|-55555555-3333-5555-|
E|-33333333-----------|

(Intro Guitar 2)Part 1
e|---------------------------|
B|-3h5p3---3h5p3-------3-----|
G|-------4-------4--55---4/2-|
D|---------------------------|Play this 3x
A|---------------------------|
E|---------------------------|

After you play that 3x play this to finnish off the intro

(Intro Both Guitars)Part 2
e|-------|
B|-------|
G|-55-77-|
D|-55-77-|
A|-33-55-|
E|-------|

(Verse Guitar 1)
e|---------------------------------------------------------------------|
B|-----0-----------------------------------------------0---------0-----|
G|-------0-----2-------2-------2-------------------------0---------0---|
D|---------1-1---1-------2-------3-----2-------5-----------------------|
A|---------------------------------3-3---3-6-6---6---------------------|
E|-3-3-------------0-0-----1-1---------------------3-3-----3-3-3-------|
(PALM MUTE ALL OF THIS!)
(Sounds weird but my guitar teacher is never wrong... So its right)
(Play this twice before going into the chorus)


(Chorus Both Guitars)
e|--------------------|
B|--------------------|
G|----------5555-7777-|
D|-55555555-5555-7777-|Play this 3x
A|-55555555-3333-5555-|
E|-33333333-----------|

Then Do This

e|---------------------------------|
B|---------------------------------|
G|----------55-77-88-77------------|
D|-55555555-55-77-88-77-555555555/-|
A|-55555555-33-55-66-55-555555555/-|
E|-33333333-------------333333333/-|


After that Play the Verse the chorus one more time.


The there are a long stream of g notes (PALM MUTED)
e|-----------|
B|-----------|
G|-----------|
D|-55555555--|
A|-55555555--|
E|-33333333--|

leading into this.

Bridge. Guitar 1)(all palm mutes except the note with this symbol ~ )
e|-----------------|
B|-----------------|
G|-----------------|
D|-555555555555-3~-|
A|-555555555555-3~-|
E|-333333333333-1~-|
(play this 4x)

Then play this with no palm mutes

e|----------------------|
B|----------------------|
G|--------------------5-|
D|-555555555555---3---5-|
A|-555555555555---3-3-3-|
E|-333333333333-1-1-----|


You could also play this like sax/ trumpet solo thingy.

e|---------------------------------------------|
B|---------------------------------------------|
G|---------------------------------------------|
D|-3-5-------3-3-5--------3-3-5------3---------|
A|-------5-5----------5-5----------5---5-3-----|
E|-----------------------------------------6-3-|
(This solo is not originally for guitar but it sounds cool on guitar.)

(Pre - Chorus Thingy Both Guitars)
e|-----------------------------------------|
B|-----------------------------------------|
G|-3333\5555\8888\10-10-10-10--------55-77-|
D|-3333\5555\8888\10-10-10-10-5------55-77-|
A|-1111\3333\6666\8--8--8--8--5------33-55-|
E|----------------------------3------------|


--------KEY CHANGE--------


(Chorus Both Guitar)
e|--------------------|
B|--------------------|
G|-88888888-----------|
D|-88888888-6666-8888-|
A|-66666666-6666-8888-|
E|----------4444-6666-|

----SOLO----


(Solo Guitar 1)
e|--------------------------------------------|
B|-11h13h11----11h13p11------------11---------|
G|----------12----------12---13-13----12-8/10-|
D|--------------------------------------------|
A|--------------------------------------------|
E|--------------------------------------------|

e|-------------------------------------------------11h13-13/15-|
B|-11h13p11----11h13p11----------------------11h13-------------|
G|----------12----------12--------------12---------------------|
D|-----------------------------------13---13-------------------|
A|--------------------------13h14h15---------------------------|
E|-------------------------------------------------------------|

(Outro Both Guitars)
E|--------------------------------------------------------------|
B|--------------------------------------------------------------|
G|-88888888-----------88888888--------------------------------8-|
D|-88888888-6666-8888-88888888-66-88-66-88--66--99\88\66---88-8-|
A|-66666666-6666-8888-66666666-66-88-66-88--66--99\88\66---88-6-|
E|----------4444-6666----------44-66-44-66--44--77\66\44---66---|

----------------------------------------------------------------------------
5.		    Before The Storm - Jonas Brothers
----------------------------------------------------------------------------
Credit to – Team Jonas and Me

Intro:
e|------------------------------------|
B|------------------------------------|
G|-77777777-------------------4444----|
D|-77777777-77777777-55555555-4444-7~-|
A|-55555555-77777777-55555555-2222-7~-|
E|----------55555555-33333333------5~-|

Verse:
e|-------------------|     e|-------------|
B|-------------------|     B|-------------|
G|-44444444----------|     G|-------------|
D|-44444444-55555555-| x8  D|-2~-7~-2~-7~-|
A|-22222222-55555555-|     A|-2~-7~-2~-7~-|
E|----------33333333-|     E|-0~-5~-0~-5~-|

Chorus:
e|--------------------------------------|
B|--------------------------------------|
G|-77777777-------------------4444------|
D|-77777777-77777777-55555555-4444-7777-| x3
A|-55555555-77777777-55555555-2222-7777-|
E|----------55555555-33333333------5555-|

Verse:
e|-------------------|     e|-------|
B|-------------------|     B|-------|
G|-44444444----------|     G|-------|
D|-44444444-55555555-| x4  D|-2~-7~-|
A|-22222222-55555555-|     A|-2~-7~-|
E|----------33333333-|     E|-0~-5~-|

Chorus:
e|--------------------------------------|
B|--------------------------------------|
G|-77777777-------------------4444------|
D|-77777777-77777777-55555555-4444-7777-| x2
A|-55555555-77777777-55555555-2222-7777-|
E|----------55555555-33333333------5555-|

Bridge:
e|-------------------------------------|
B|-------------------------------------|
G|-------------------44444444----------|
D|-22222222-77777777-44444444-55555555-|
A|-22222222-77777777-22222222-55555555-|
E|-00000000-55555555----------33333333-|

e|-------------------------------------|
B|-------------------------------------|
G|-------------------44444444----------|
D|-22222222-77777777-44444444-5~-7~-5~-|
A|-22222222-77777777-22222222-5~-7~-5~-|
E|-00000000-55555555----------3~-5~-3~-|

Chorus: (Don’t play anything, when the piano is playing.)
e|---------------------------------------------|
B|---------------------------------------------|
G|-9~-999-------------------6666-4444-99999999-|
D|-9~-999-99999999-77777777-6666-4444-99999999-|
A|-7~-777-99999999-77777777-4444-2222-77777777-|
E|--------77777777-55555555--------------------|

Outro:
e|------------------------------------------------|
B|------------------------------------------------|
G|-99999999-------------------6666-4444--6~-4~----|
D|-99999999-99999999-77777777-6666-4444--6~-4~-7~-|
A|-77777777-99999999-77777777-4444-2222--4~-2~-7~-|
E|----------77777777-55555555------------------5~-|

Solo:

e|-------14b16-12~-11-12-11h12p11-----------------11-12-11----------------|
B|-12h14--------------------------12-14~----12-14----------12-14~-16~-17~-|
G|---------------------------------------13-------------------------------|
D|------------------------------------------------------------------------|
A|------------------------------------------------------------------------|
E|------------------------------------------------------------------------|

----------------------------------------------------------------------------
6.            What Did I Do To Your Heart - Jonas Brothers
----------------------------------------------------------------------------
Credit to – Team Jonas and Me

Intro:
e|--------------------------------------|
B|--------------------------------------|
G|-99-9-99-9-99-9-99-9------------------|
D|-99-9-99-9-99-9-99-9-77-7-77-7-77-7-7-|
A|-77-7-77-7-77-7-77-7-77-7-77-7-77-7-7-|
E|---------------------55-5-55-5-55-5-5-|

Or another guitar can play this

e|----------------------------------------------------------------------------|
B|---------------------------------------------------7h9-------------7h9------|
G|-6h7h9-9999-6-9~-6------7h9-9999-6-9~-6------6h7h9-----6h7h9-6h7h9-----6h7h9|
D|-------------------9-9~-----------------9-9~--------------------------------|
A|----------------------------------------------------------------------------|
E|----------------------------------------------------------------------------|

Continued Below

Alternate strum all of this but the hammer on / pull off.
e|------------------|
B|-799979997h9p7----|
G|---------------9~-|
D|------------------|
A|------------------|
E|------------------|

Repeats many times in different spots so Play whenever you want!

Verse:
e|-------------------------------|    |--------|
B|-------------------------------|    |--------|
G|-99-9-99-9-99-9-99-9-----------|    |--------|
D|-99-9-99-9-99-9-99-9-77-7-77-7-| x2 |-77-7-7-|
A|-77-7-77-7-77-7-77-7-77-7-77-7-|    |-77-7-7-|
E|---------------------55-5-55-5-|    |-55-5-5-|

Chorus:
e|-0~-0~-0~-0~-|
B|-0~-0~-0~-0~-|
G|-1~-1~-2~-2~-|
D|-2~-2~-2~-2~-| x2
A|-2~-2~-0~-0~-|
E|-0~-0~-0~-0~-|

Or play the bass notes palm mutes

e|---------------------------------------------------|
B|---------------------------------------------------|
G|-999999999999999999999999--------------------------|
D|-999999999999999999999999-777777777777777777777777-|
A|-777777777777777777777777-777777777777777777777777-|
E|--------------------------555555555555555555555555-|
PM-************************-************************-|

Post-chorus:
e|--------------------------------------|
B|--------------------------------------|
G|-99-9-99-9-99-9-99-9------------------|
D|-99-9-99-9-99-9-99-9-77-7-77-7-77-7-7-|
A|-77-7-77-7-77-7-77-7-77-7-77-7-77-7-7-|
E|---------------------55-5-55-5-55-5-5-|

Verse:
e|-------------------------------|    |--------|
B|-------------------------------|    |--------|
G|-99-9-99-9-99-9-99-9-----------|    |--------|
D|-99-9-99-9-99-9-99-9-77-7-77-7-| x2 |-77-7-7-|
A|-77-7-77-7-77-7-77-7-77-7-77-7-|    |-77-7-7-|
E|---------------------55-5-55-5-|    |-55-5-5-|

Chorus:
e|-0~-0~-0~-0~-|
B|-0~-0~-0~-0~-|
G|-1~-1~-2~-2~-|
D|-2~-2~-2~-2~-| x2
A|-2~-2~-0~-0~-|
E|-0~-0~-0~-0~-|

Or play the bass notes palm mutes

e|---------------------------------------------------|
B|---------------------------------------------------|
G|-999999999999999999999999--------------------------|
D|-999999999999999999999999-777777777777777777777777-|
A|-777777777777777777777777-777777777777777777777777-|
E|--------------------------555555555555555555555555-|
PM-************************-************************-|

Bridge: First guitar
e|---------------------------------------------------|
B|---------------------------------------------------|
G|-999999999999999999999999--------------------------|
D|-999999999999999999999999-777777777777777777777777-|
A|-777777777777777777777777-777777777777777777777777-|
E|--------------------------555555555555555555555555-|

Bridge {solo} – Second Guitar
e|------------------------------------------------------------|
B|-7-999999999-7-999-7----7-999999999---------------7-7-99999-|
G|---------------------9~---------------------6-7-9-----------|
D|----------------------------------------7-9-----------------|
A|------------------------------------7-9---------------------|
E|------------------------------------------------------------|

Continued below

e|-777/12-12-12~-12--12-12-12--12-12~-12~--12-12-12-11-11~-9~-7-7~-|
B|-----------------------------------------------------------------|
G|-----------------------------------------------------------------|
D|-----------------------------------------------------------------|
A|-----------------------------------------------------------------|
E|-----------------------------------------------------------------|

Chorus:
e|---------------------------------------------------|
B|---------------------------------------------------|
G|-999999999999999999999999--------------------------|
D|-999999999999999999999999-777777777777777777777777-| x2
A|-777777777777777777777777-777777777777777777777777-|
E|--------------------------555555555555555555555555-|

Outro:
e|--------------------------------------------|
B|--------------------------------------------|
G|-999999999999999999999999--------------9-9~-|
D|-999999999999999999999999-777777777777-9-9~-|
A|-777777777777777777777777-777777777777-7-7~-|
E|--------------------------555555555555------|


----------------------------------------------------------------------------
7.			     Much Better - Jonas Brothers
----------------------------------------------------------------------------
Credit to - Me

Horns solo is coming soon! (Promise, I have been busy!)


Intro - Piano/Synth thingy (~ = a hold)  May continue during verse!
e|---------------11-------9----------11------------------------------------|
B|-9-11-----9-11----11~-9---11~-9-11----11~-9-11------9-11-----11-9-11-----|
G|------11~--------------------------------------11~-------11~----------10-|
D|-------------------------------------------------------------------------|
A|-------------------------------------------------------------------------|
E|-------------------------------------------------------------------------|

Intro - Guitar(s) (PM = Palm Mute) (* = where to PM)
e|---------------------------------------------------------------------|
B|---------------------------------------------------------------------|
G|-444444444444444------------------4444444444444444----------66666666-|
D|-444444444444444-4444444444444444-4444444444444444-44444444-66666666-|
A|-222222222222222-4444444444444444-2222222222222222-44444444-44444444-|
E|-----------------2222222222222222------------------22222222----------|
PM *************** **************** **************** ******** ********

Verses -(This is for all verses!)(PM = Palm Mute)(* = where to PM)
e|------------------------------------------------------------------|
B|------------------------------------------------------------------|
G|-444-444-444-444-444-444-444-444----------------------------------|
D|-444-444-444-444-444-444-444-444--444-444-444-444-444-444-444-444-|
A|-222-222-222-222-222-222-222-222--444-444-444-444-444-444-444-444-|
E|----------------------------------222-222-222-222-222-222-222-222-|
PM *** *** *** *** *** *** *** ***  *** *** *** *** *** *** *** ***


Continued underneath

e|-------------------------------------------------------------------|
B|-------------------------------------------------------------------|
G|-444-444-444-444-444-444-444-444-------------------666-666-666-666-|
D|-444-444-444-444-444-444-444-444--444-444-444-444--666-666-666-666-|
A|-222-222-222-222-222-222-222-222--444-444-444 444--444-444-444-444-|
E|----------------------------------222-222-222-222------------------|
PM *** *** *** *** *** *** *** ***  *** *** *** ***  *** *** *** ***

Repeat that whole thing one more time and thats the whole verse.

Chorus - Both Guitars (This is for any time the chorus plays)
e|---------------------------------------------------------------------|
B|---------------------------------------------------------------------|
G|-444444444444444------------------4444444444444444----------66666666-|
D|-444444444444444-4444444444444444-4444444444444444-44444444-66666666-| x2
A|-222222222222222-4444444444444444-2222222222222222-44444444-44444444-|
E|-----------------2222222222222222------------------22222222----------|
PM *************** **************** **************** ******** ********

Then Repeat the Verse

Then repeat the Chorus


!!!!!!SOLO!!!!!!(part 1)(one guitar plays this)
(b = Bend)
(h = hammeron)
(p = pulloff)
(/ = Slide to a note)
(\ = Slide away from the note you just played)
e|------------------------------------------------------12~~-|
B|----------------------------------------------10-12b14-----|
G|------------6-9-9b11~~\-9h11p9h11p9h11p9h11p9--------------|
D|----/7~-/9~------------------------------------------------|
A|-/9~-------------------------------------------------------|
E|-----------------------------------------------------------|

!!!!!!SOLO!!!!!!(Part 2)
e|----------------------------|
B|-----------------------/19\-|
G|-9h11p9h11p9h11p9h11p9------|
D|----------------------------|
A|----------------------------|
E|----------------------------|

!!!!!!SOLO!!!!!!(part 3)
(this part was hard to tab such fast notes!)(I think I got it right though!)
(keep finger planted on b and e string 11 fret. strum 14 pull off to 12 then 11 then go 
the next string and do the same thing)

e|-14p12p11----------14p12p11----------14p12p11----------|
B|----------14p12p11----------14p12p11----------14p12p11-|
G|-------------------------------------------------------| x4~!
D|-------------------------------------------------------|
A|-------------------------------------------------------|
E|-------------------------------------------------------|

DO THIS 4 TIMES!
I didn't want to tab out the same thing 24 times lol!
so repeat those

!!!!!!SOLO!!!!!!(part 4)
e|--------------------------------------------|
B|-14p12p11------------------------------/19~-|
G|----------14p12p11-11h14p11h12--11~---------|
D|------------------------------------9~\-----|
A|--------------------------------------------|
E|--------------------------------------------|

Yay that solo was hard to tab!


Outro - (both guitars) (PM = Palm Mute) (* = the notes that are palm muted)
e|---------------------------------------------------------------------|
B|---------------------------------------------------------------------|
G|-444444444444444------------------4444444444444444----------66666666-|
D|-444444444444444-4444444444444444-4444444444444444-44444444-66666666-| x4
A|-222222222222222-4444444444444444-2222222222222222-44444444-44444444-|
E|-----------------2222222222222222------------------22222222----------|
PM *************** **************** **************** ******** ********

----------------------------------------------------------------------------
8.			     Black Keys - Jonas Brothers
----------------------------------------------------------------------------
Credit to TeamJonas (Thanks pretty much a perfect tab!)

Chords used:
   Bb  Db  G# G#m  F#  F5  F#5 G#5 Bb5
e|-1---4---4---4---2------------------|
B|-2---4---4---4---2------------------|
G|-3---6---5---6---3------------------|
D|-3---6---6---6---4---3---4---6---8--|
A|-1---4---6---6---4---3---4---6---8--|
E|---------4---4---2---1---2---4---6--|

If you find the chords too difficult;
Play it with Capo on 1st and change the chords to these;
Bb  -> Am
Db  -> C
G#  -> G
G#m -> Gm
F#  -> F
F5  -> E5
F#5 -> F5
G#5 -> G5
Bb5 -> A5

Intro:
Bb Db G# G#m x2

Verse:
Bb         Db
She walks away
  G#               G#m
The colors fade to gray
Bb              Db          G#   G#m
Every precious moment's now erased
Bb            Db
She hits the gas
G#              G#m
Hoping it would pass
Bb                           Db
But the red light starts to flash
             G#  G#m
It's time to wait

Chorus:
        F#        Db
And the black keys
Bb              G#m
Never looked so beautiful
      F#                Db              Bb   G#m
And a perfect rainbow never seemed so dull
        F#        Db
And the lights out
Bb             G#m
Never had this bright of glow
        F#         Db
And the black keys
Bb            G#m
Showing me a world I never
F#        Db Bb G#m                F#    Db Bb G#m
  Knew, no.         A world I never knew

Verse:
Bb             Db
She hates the sun
         G#                G#m
Cause it proves she's not alone
        Bb               Db                G#  G#m
And the world doesn't revolve around your soul, no.
Bb             Db          G#            G#m
She loves the sky cause it validates her pride
Bb             Db              G#  G#m
Never lets her know when she is wrong

Chorus:
        F#        Db
And the black keys
Bb              G#m
Never looked so beautiful
      F#                Db              Bb   G#m
And a perfect rainbow never seemed so dull
        F#        Db
And the lights out
Bb             G#m
Never had this bright of glow
        F#         Db
And the black keys
Bb            G#m
Showing me a world I never
F#         Db    Bb    G#m               F#
  Knew, no.  Yeah  The walls are closing in.

Bridge:
(Play like this, in rhythm with the piano.)
e|---------------------------------|    |--------------------------------|
B|---------------------------------|    |--------------------------------|
G|---------------------------------|    |--------------------------------|
D|-3-3-3-3-4-4-4-4-6-6-6-6-8-8-6-6-| x2 |-3-3/4-4/6-6/8\6-33333333-44-66-|
A|-3-3-3-3-4-4-4-4-6-6-6-6-8-8-6-6-|    |-3-3/4-4/6-6/8\6-33333333-44-66-|
E|-1-1-1-1-2-2-2-2-4-4-4-4-6-6-4-4-|    |-1-1/2-2/4-4/6\4-11111111-22-44-|

F5     F#5       G#5
  Don't let em get
Bb5 G#5         F5
Inside of your head
F5     F#5       G#5
  Don't let em get
Bb5 G#5         F5
Inside of your head
F5     F#5       G#5
  Don't let em get
Bb5 G#5         F5
Inside of your head
      F#5        G#5
Don't let them inside

Chorus:
           F#        Db
‘Cause the black keys
Bb              G#m
Never looked so beautiful
      F#                Db              Bb   G#m
And a perfect rainbow never seemed so dull
        F#        Db
And the lights out
Bb             G#m
Never had this bright of glow
        F#         Db
And the black keys
Bb            G#m
Showing me a world I never
F#     Db
  Knew,   Don't let em get
Bb
Don't let em get
G#m
Inside of your head

Outro:
F#         Db
  Don't let 'em get
Bb   G#
  Inside of your head
F#         Db         Bb
  Don't let 'em get, yeah
  G#
Inside of your head
F#         Db
  Don't let 'em get
Bb
Don't let 'em get
  G#
Inside of your head
F#         Db        Bb
  Don't let 'em get, oh.
  G#
Inside of your head
Bb          Db        G#               G#m
Sometimes a fight is better black and white

----------------------------------------------------------------------------
9.            Don’t Charge Me for The Crime - Jonas Brothers
----------------------------------------------------------------------------
Credit to – elvincenzo and Me

Bass intro

e|------------------------------------------------------------------------|
B|------------------------------------------------------------------------|
G|------------------------------------------------------------------------|
D|------------------------------------------------------------------------|x2
A|----------2-2---2----------------2-2---2---------------2-2-0-2-3-3-2-2~-|
E|-0-0--0-3---------3--0-0-----0-3---------3--0-0----0--3-----------------|

Verse

e|--------------------------------------|
B|--------------------------------------|
G|--------------------------------------|
D|---2--2---5--5---7--7---10-10-9-9-----|x4
A|---2--2---5--5---7--7---10-10-9-9-----|
E|---0--0---3--3---5--5---8--8--7-7-----|


This is for every chorus

This is just the intro bass riff on guitar using power chords with a simple fill wchich 
like this.

“don’t charge me for the……”
e|-12----------12-----------12----------12-----|
B|-15b17-17-17-15b-17-17-17-15b17-17-17-15b17~-|
G|---------------------------------------------|
D|---------------------------------------------|
A|---------------------------------------------|
E|---------------------------------------------|

“don’t charge me for the……”
e|-12----------12-----------12----------15-----|
B|-15b17-17-17-15b-17-17-17-15b17-17-17-18b20~-|
G|---------------------------------------------|
D|---------------------------------------------|
A|---------------------------------------------|
E|---------------------------------------------|

(x7 means play that note 7 times)
bridge
e|-----------------------------------------------------------------|
B|--20-x7-19-x7--17-x7-15-x7-12-x-7--10-x-7—8-x7------5---3----5---|
G|-----------------------------------------------------------------|
D|-----------------------------------------------------------------|
A|-----------------------------------------------------------------|
E|-----------------------------------------------------------------|

Outro
e|------------------------------------------------------------------------|
B|------------------------------------------------------------------------|
G|------------------------------------------------------------------------|
D|------------------------------------------------------------------------|x2
A|----------2-2---2----------------2-2---2---------------2-2-0-2-3-3-2-2~-|
E|-0-0--0-3---------3--0-0-----0-3---------3--0-0----0--3-----------------|

Mush these two parts together or just play one, doesn’t matter they are both in the outro.

e|--------------------------------------|
B|--------------------------------------|
G|--------------------------------------|
D|---2--2---5--5---7--7---10-10-9-9-----|x4
A|---2--2---5--5---7--7---10-10-9-9-----|
E|---0--0---3--3---5--5---8--8--7-7-----|


----------------------------------------------------------------------------
10.                        Turn Right - Jonas Brothers
----------------------------------------------------------------------------
Credit to – Me

Capo 1

Intro/Verse
e|--------------------3----|
B|-----3--------3--------3-|
G|---0--------2------------|
D|----------0—----0h2------|
A|-2-----3-----------------|
E|-------------------------|


Chorus
e|-------------------3---|
B|-----3-------3-------3-|
G|---0-------2-----------|   x2
D|---------0—----0h2-----|
A|-2----3----------------|
E|-----------------------|

e|------------------------3-|
B|-----3-------3--------3---|
G|---0-------0--------0-----|
D|---------—----------------|
A|-2-----3----------3-------|
E|---------3-----2----------|

- Repeat verse and chorus -

Bridge (Strum the chords)

D     Cadd9  G
I did all I could

 D     Cadd9 G
I gave everything

        Em     D       Cadd9
But you had to go your way

         Em       D       Cadd9
And that road was not for me


Chorus (This last one is strummed)

        G   Cadd9
So turn right

   D       Em
Into my arms

     G  Cadd9
Turn right

        D    Em
You won't be alone

   G  Cadd9
You might

G              D           Cadd9
Fall off those tracks some times

Hope to see you at the finish line


Outro (Studio Version)
e|--------------------3---|
B|-----3--------3-------3-|
G|---0--------2-----------|
D|----------0—----0h2-----|
A|-2-----3----------------|
E|------------------------|

-----------------------------------------------------------------------------
11.                          Don't Speak - Jonas Brothers
-----------------------------------------------------------------------------

Credit to - Me

Tuning:Standard

INTRO - Just strum each chord and let it ring. Chords = D to C to G
e|------------|
B|------------|
G|-7~--5~-----|
D|-7~--5~--5~-|
A|-5~--3~--5~-|
E|---------3~-|

VERSES - Strum each chord once and let it ring.
e|-----2~--2~------3~--3~---------|
B|-7~--2~--3~--5~--3~--3~--7~--2~-|
G|-7~--2~--4~--5~--4~--3~--7~--2~-|
D|-7~--4~--4~--5~--5~--5~--7~--2~-|
A|-5~--4~--2~--3~--5~--5~--5~--0~-|
E|-----2~----------3~--3~---------|

Another way to play the verse is this...

I think this is the bass line or palm muted guitar... Can't tell really
e|-----------------------------------------------------------------------|
B|-----------------------------------------------------------------------|
G|-----------------------------------------------------------------------|
D|-----------------------------------------------------------------------|
A|-555-55-555-55---------------222-22-222-22-333-33-333-33---------------|
E|---------------222-22-222-22-----------------------------333-33-333-33-|

Continued underneath

e|-------------------------------------------|
B|-------------------------------------------|
G|-------------------------------------------|
D|-------------------------------------------|
A|---------------555-55-555-55-000-00-000-00-|
E|-333-33-333-33-----------------------------|

CHORUS - I strum each chord til next chord change. (you can do whatever you want
Hold the chord... doesn't matter.
e|------------------------------------|
B|------------------------------------|
G|-7777777777777777-55555555----------|
D|-7777777777777777-55555555-55555555-|
A|-5555555555555555-33333333-55555555-|
E|---------------------------33333333-|

BRIDGE - Same as intro - Strum each chord once let it ring.
e|------------|
B|------------|
G|-7~--5~-----|
D|-7~--5~--5~-|x2
A|-5~--3~--5~-|
E|---------3~-|

SOLO Part 1 - Figured this out by ear. So don't get mad if 1 note is wrong... if that!
e|-----12-14--------------------|
B|-/15-------15--10/17-13-------|
G|------------------------14-12-|
D|------------------------------|
A|------------------------------|
E|------------------------------|

Continued Underneath

SOLO Part 2 - Comes in right after part 1!
e|-----12-14--------------14-15-17~--14-15-17-15-17~-19/21\-|
B|-/15-------15--10/17-13-----------------------------------|
G|----------------------------------------------------------|
D|----------------------------------------------------------|
A|----------------------------------------------------------|
E|----------------------------------------------------------|

OUTRO Part 1 - Both guitars
e|------------------------------------|
B|------------------------------------|
G|-7777777777777777-55555555----------|
D|-7777777777777777-55555555-55555555-|x2
A|-5555555555555555-33333333-55555555-|
E|---------------------------33333333-|

Then 1 guitar keeps playing the part 1 part while 1 guitar plays this

OUTRO Part 2 - Just 1 guitar
e|-----12-14--------------------|
B|-/15-------15--10/17-13-------|
G|------------------------14-12-|
D|------------------------------|
A|------------------------------|
E|------------------------------|

Finishing note = D = D CHORD!

so 15 on the B string is fine to finish with. Maybe some vibrato

but D is the first chord in the song and that is the last chord... who would guess that!

----------------------------------------------------------------------------
12.			     Keep It Real - Jonas Brothers
----------------------------------------------------------------------------

 e---x
 B---Index/Minimus
 G---Middle
 D---Ring
 A---x
 E---Thumb

      You would lift your last finger up and down to play the higher notes
      on the B string, and let your thumb hang over the top to play the low
      E string without discomfort.  Your thumb may also rest against the A
      in order to mute it.

Intro

             Bmaj6                           Amaj6
e|---------|--------------|----------------|--------------|----------------|
B|-x-x-x-x-|-9--9--9----9-|--9---7-9-9-9---|-7--7--7----7-|--7---5-7-7-7---|
G|-x-x-x-x-|-8--8--8----8-|--8---8-8-8-8---|-6--6--6----6-|--6---6-6-6-6---|
D|-x-x-x-x-|-9--9--9----9-|--9---9-9-9-9---|-7--7--7----7-|--7---7-7-7-7---|
A|-x-x-x-x-|--------------|----------------|--------------|----------------|
E|-x-x-x-x-|-7--7--7----7-|--7---7-7-7-7---|-5--5--5----5-|--5---5-5-5-5---|

   Bmaj6                           Amaj6
e|--------------|----------------|--------------|-----------------|
B|-9--9--9----9-|--9---7-9-9-9---|-7------------|-x-x-x-x-x-x-x-x-|
G|-8--8--8----8-|--8---8-8-8-8---|-6------------|-x-x-x-x-x-x-x-x-|
D|-9--9--9----9-|--9---9-9-9-9---|-7------------|-x-x-x-x-x-x-x-x-|
A|--------------|----------------|--------------|-x-x-x-x-x-x-x-x-|
E|-7--7--7----7-|--7---7-7-7-7---|-5------------|-x-x-x-x-x-x-x-x-|

   Bmaj6                           Amaj6
e|--------------|----------------|--------------|----------------|
B|-9--9--9----9-|--9---7-9-9-9---|-7--7--7----7-|--7---5-7-7-7---| Repeat
G|-8--8--8----8-|--8---8-8-8-8---|-6--6--6----6-|--6---6-6-6-6---| Once
D|-9--9--9----9-|--9---9-9-9-9---|-7--7--7----7-|--7---7-7-7-7---|
A|--------------|----------------|--------------|----------------|
E|-7--7--7----7-|--7---7-7-7-7---|-5--5--5----5-|--5---5-5-5-5---|

Lead guitar brass solo thing
   Bmaj6
e|----------------------|-----------------------|
B|----------------------|-----------------------|
G|-/13--/13--/13----/13-|---/13---11/13---/13---|
D|----------------------|-----------------------|
A|----------------------|-----------------------|
E|----------------------|-----------------------|

   Amaj6
e|----------------------|-----------------------|
B|----------------------|------------12-10-9----|
G|-/11--/11--/11----/11-|---/11---11---------11-|
D|----------------------|-----------------------|
A|----------------------|-----------------------|
E|----------------------|-----------------------|

   Bmaj6
e|--------------------|---------------12-14-|
B|-------12-9---------|----12---12-14-------|
G|--13--------11-9~\--|---------------------|
D|--------------------|---------------------|
A|--------------------|---------------------|
E|--------------------|---------------------|

   Amaj6
e|-/16----12~~~--------|-----------------------|
B|------------------14-|--12-------------------|
G|---------------------|-----13-11-13-11-9~\---|
D|---------------------|-----------------------|
A|---------------------|-----------------------|
E|---------------------|-----------------------|


Verse x2

   Bmaj6                           Amaj6
e|---------------|---------------|--------------|---------------|
B|---------------|---------------|--------------|---------------|
G|---------------|---------------|--------------|---------------|
D|---------------|---------------|--------------|---------------|
A|-11-11-11---11-|--11--9-11--9--|-9--9--9----9-|--9---7-9---7--|
E|-7--7--7----7--|--7---7-7---7--|-5--5--5----5-|--5---5-5---5--|

   Bmaj6                              Amaj6
e|---------------|---------------|--------------|---------------|
B|---------------|---------------|--------------|---------------|
G|---------------|---------------|--------------|---------------|
D|---------------|---------------|--------------|---------------|
A|-11-11-11---11-|--11--9-11--9--|----9----9----|-9----9----9---|
E|-7--7--7----7--|--7---7-7---7--|----5----5----|-5----5----5---|


Fill before chorus

e|-------12~~---------|
B|-12-14-------14-12--|
G|--------------------|
D|--------------------|
A|--------------------|
E|--------------------|

Chorus x 4

   Bmaj6                           Amaj6
e|--------------|----------------|--------------|----------------|
B|-9--9--9----9-|--9---7-9-9-9---|-7--7--7----7-|--7---5-7-7-7---|
G|-8--8--8----8-|--8---8-8-8-8---|-6--6--6----6-|--6---6-6-6-6---|
D|-9--9--9----9-|--9---9-9-9-9---|-7--7--7----7-|--7---7-7-7-7---|
A|--------------|----------------|--------------|----------------|
E|-7--7--7----7-|--7---7-7-7-7---|-5--5--5----5-|--5---5-5-5-5---|

Verse 2

 Also plays the same rhythm figure as verse 1

 Palm mute all low notes

e|---------------|----------------|---------------|----------------|
B|---------------|----------------|---------------|----------------|
G|---------------|----------------|---------------|----------------|
D|----9----9-----|-----9-------9--|----7----7-----|-----7-------7--|
A|---------------|----------------|---------------|----------------|
E|-7-----7-----7-|-7-7-----7-7----|-5-----5-----5-|-5-5-----5-5----|

e|---------------|----------------|---------------|----------------|
B|---------------|----------------|---------------|----------------|
G|---------------|----------------|---------------|----------------|
D|----9----9-----|-----9-------9--|----7----7-----|-7-----------7--|
A|---------------|----------------|---------------|----------------|
E|-7-----7-----7-|-7-7-----7-7----|-5-----5-----5-|-----5---5-5----|

e|---------------|----------------|---------------|----------------|
B|---------------|----------------|---------------|----------------|
G|---------------|----------------|---------------|----------------|
D|----9----9-----|-----9-------9--|----7----7-----|-------------7--|
A|---------------|----------------|---------------|----------------|
E|-7-----7-----7-|-7-7-----7-7----|-5-----5-----5-|---5-5---5------|

e|---------------|----------------|-----------------|-----------------|
B|---------------|----------------|-----------------|-----------------|
G|---------------|----------------|-----------------|-----------------|
D|----9----9-----|-----9-----9----|-----------------|-----------------|
A|---------------|----------------|---------7-7-7-7-|-7-7-7-7-7-7-7-7-|
E|-7-----7-----7-|-7-7-----7------|-5-5-5-5-5-5-5-5-|-5-5-5-5-5-5-5-5-|
                                    |--Gradually Release PM---|

Chorus x 4

   Bmaj6                           Amaj6
e|--------------|----------------|--------------|----------------|
B|-9--9--9----9-|--9---7-9-9-9---|-7--7--7----7-|--7---5-7-7-7---|
G|-8--8--8----8-|--8---8-8-8-8---|-6--6--6----6-|--6---6-6-6-6---|
D|-9--9--9----9-|--9---9-9-9-9---|-7--7--7----7-|--7---7-7-7-7---|
A|--------------|----------------|--------------|----------------|
E|-7--7--7----7-|--7---7-7-7-7---|-5--5--5----5-|--5---5-5-5-5---|

Bridge

   Dmaj        Amaj                Emaj
e|---------------|---------------|---------------|---------------|
B|-7--7--7-7-7---|---------------|-9--9--9-9-9-9-|--9-9--9-9-9-9-|
G|-7--7--7-7-7-6-|--6-6--6-6-6-6-|-9--9--9-9-9-9-|--9-9--9-9-9-9-|
D|-7--7--7-7-7-7-|--7-7--7-7-7-7-|-9--9--9-9-9-9-|--9-9--9-9-9-9-|
A|-5--5--5-5-5-7-|--7-7--7-7-7-7-|-7--7--7-7-7-7-|--7-7--7-7-7-7-|
E|-------------5-|--5-5--5-5-5-5-|---------------|---------------|

   Dmaj        Amaj                Bmaj
e|---------------|---------------|----------------|-----------------|
B|-7--7--7-7-7---|---------------|----------------|-----------------|
G|-7--7--7-7-7-6-|--6-6--6-6-6-6-|-8--------------|-----------------|
D|-7--7--7-7-7-7-|--7-7--7-7-7-7-|-9--9-9-9-9-9-9-|-9-9-9-9-9-9-9-9-|
A|-5--5--5-5-5-7-|--7-7--7-7-7-7-|-9--9-9-9-9-9-9-|-9-9-9-9-9-9-9-9-|
E|-------------5-|--5-5--5-5-5-5-|-7--7-7-7-7-7-7-|-7-7-7-7-7-7-7-7-|

Chorus x 2

e|-------|-------|-------|-------|
B|-9-----|-------|-7-----|-------|
G|-8-----|-------|-6-----|-------|
D|-9-----|-------|-7-----|-------|
A|-------|-------|-------|-------|
E|-7-----|-------|-5-----|-------|
   Play with a slow downstroke

Brass/Guitar Solo

Rhythm Guitar: Play the chorus rhythm twice

   Bmaj6                           Amaj6
e|--------------|----------------|--------------|----------------|
B|-9--9--9----9-|--9---7-9-9-9---|-7--7--7----7-|--7---5-7-7-7---|
G|-8--8--8----8-|--8---8-8-8-8---|-6--6--6----6-|--6---6-6-6-6---|
D|-9--9--9----9-|--9---9-9-9-9---|-7--7--7----7-|--7---7-7-7-7---|
A|--------------|----------------|--------------|----------------|
E|-7--7--7----7-|--7---7-7-7-7---|-5--5--5----5-|--5---5-5-5-5---|


Lead Guitar:

  Bmaj6
e|----------------------|-----------------------|
B|----------------------|-----------------------|
G|-/13--/13--/13----/13-|---/13---11/13---/13---|
D|----------------------|-----------------------|
A|----------------------|-----------------------|
E|----------------------|-----------------------|

   Amaj6
e|----------------------|-----------------------|
B|----------------------|------------12-10-9----|
G|-/11--/11--/11----/11-|---/11---11---------11-|
D|----------------------|-----------------------|
A|----------------------|-----------------------|
E|----------------------|-----------------------|

   Bmaj6
e|--------------------|---------------12-14-|
B|-------12-9---------|----12---12-14-------|
G|--13--------11-9~\--|---------------------|
D|--------------------|---------------------|
A|--------------------|---------------------|
E|--------------------|---------------------|

   Amaj6
e|-/16----12~~~--------|-----------------------|
B|------------------14-|--12-------------------|
G|---------------------|-----13-11-13-11-9~\---|
D|---------------------|-----------------------|
A|---------------------|-----------------------|
E|---------------------|-----------------------|


Chorus x 4

   Bmaj6                           Amaj6
e|--------------|----------------|--------------|----------------|
B|-9--9--9----9-|--9---7-9-9-9---|-7--7--7----7-|--7---5-7-7-7---|
G|-8--8--8----8-|--8---8-8-8-8---|-6--6--6----6-|--6---6-6-6-6---|
D|-9--9--9----9-|--9---9-9-9-9---|-7--7--7----7-|--7---7-7-7-7---|
A|--------------|----------------|--------------|----------------|
E|-7--7--7----7-|--7---7-7-7-7---|-5--5--5----5-|--5---5-5-5-5---|

End on

   Bmaj6
e|-7---7-----|
B|-9---9-----| Move your index from the B string
G|-8---8-----| to the E string to play the high
D|-9---9-----| B note.
A|-----------|
E|-7---7-----|

-----------------------------------------------------------------------------
13.			     Hey Baby - Jonas Brothers
-----------------------------------------------------------------------------

Tabbed by:XxGuitarzer0xX

Email:Spongebobs400s@hotmail.com

Tuning:Standard

Guitar one is Distortion
Guitar two has Wah and Distortion


Any problems, Watch my guitar cover. - 

http://www.youtube.com/watch?v=C0uzU3-hmdU





Intro - Guitar 1
e|--------------------------------|
B|--------------------------------|
G|-4-44-------------4-44----------|
D|-4-444-445-5-5-55-4-444-445-5-5-| 
A|-2-224-445-5-5-55-2-224-445-5-5-|
E|-----2-223-3-3-35-----2-223-3-3-|

Guitar 2
e|-----------------------|
B|-----------------------|
G|-9b11-9-7--4-4-7-7/4-4-|
D|-----------------------| repeat
A|-----------------------|
E|-----------------------|





Verse 1 - Guitar 1
e|--------------------------------|
B|--------------------------------|
G|-4-44-------------4-44----------|
D|-4-444-445-5-5-55-4-444-445-5-5-| Repeat
A|-2-224-445-5-5-55-2-224-445-5-5-|
E|-----2-223-3-3-35-----2-223-3-3-|





Pre-Chorus
e|----------------------------------------------|
B|----------------------------------------------|
G|----------------------------------------------|
D|---2---2---5------7---------------------------|
A|---2---2---5------7---------------------------|
E|-000-000-333-33-555--5775775775775775775775-2-|




Chorus
e|-------------------------------|
B|-------------------------------|
G|-4-4-4----------7-7-7977-7-3/6-|
D|-4-4-4542-2-242-7-7-7977-7-3/6-| Repeat
A|-2-2-2542-2-242-5-5-5754-4-1/4-|
E|------320-0-020----------------|




Verse 2 - Guitar 1
e|--------------------------------|
B|--------------------------------|
G|-4-44-------------4-44----------|
D|-4-444-445-5-5-55-4-444-445-5-5-| Repeat
A|-2-224-445-5-5-55-2-224-445-5-5-|
E|-----2-223-3-3-35-----2-223-3-3-|




Verse Gap - Guitar 1
e|----------------------|
B|----------------------|
G|--------------------4-|
D|---2---2---5------7-4-|
A|---2---2---5------7-2-|
E|-000-000-333-33-555---|




Verse 2 - Guitar 1
e|--------------------------------|
B|--------------------------------|
G|-4-44-------------4-44----------|
D|-4-444-445-5-5-55-4-444-445-5-5-| Repeat
A|-2-224-445-5-5-55-2-224-445-5-5-|
E|-----2-223-3-3-35-----2-223-3-3-|

Guitar 2
e|-------------------------|
B|---------------10/12-12~-|
G|-11~-11-9----------------|
D|----------9~-------------|
A|-------------------------|
E|-------------------------|




Pre-Chorus
e|----------------------------------------------|
B|----------------------------------------------|
G|----------------------------------------------|
D|---2---2---5------7---------------------------|
A|---2---2---5------7---------------------------|
E|-000-000-333-33-555--5775775775775775775775-2-|





Chorus
e|-------------------------------|
B|-------------------------------|
G|-4-4-4----------7-7-7977-7-3/6-|
D|-4-4-4542-2-242-7-7-7977-7-3/6-| Repeat
A|-2-2-2542-2-242-5-5-5754-4-1/4-|
E|------320-0-020----------------|





Solo - This solo will be broken down into parts. All parts use A Wah Pedal




Solo part 1 - Guitar 2
e|----------------------------------------------------------------------------|
B|--------------------------7---------7-------------------7-------------------|
G|-12b14-12b14-12p9-12/11/9---9p7-7h9---9p7--7h9-9-7/9--7---9--7h9p7-6h7p6-6/-|
D|-------------------------------9---------9----------------------------------|
A|----------------------------------------------------------------------------|
E|----------------------------------------------------------------------------|


Solo Part 2
e|---------6h7p6h7-7p6--------------------------------------7h10p7h10-10/12/14--|
B|-6h7p6p7------------6--------------------10----9-9-9-9h10--------------------|
G|----------------------7-9-7-9-9---7-9/11----11-------------------------------|
D|--------------------------------9--------------------------------------------|
A|-----------------------------------------------------------------------------|
E|-----------------------------------------------------------------------------|


Solo Part 3
e|-12-14-14b16-12-------12---------------------------------------------|
B|----------------15b17----15-12---------------------------------10/12-|
G|-------------------------------14/16---16(speed pick 16 times)-------|
D|---------------------------------------------------------------------|
A|---------------------------------------------------------------------|
E|---------------------------------------------------------------------|



Verse 4 - Guitar 1
e|------------------|
B|------------------|
G|-4-44-------------|
D|-4-444-445-5-5-55-| 
A|-2-224-445-5-5-55-|
E|-----2-223-3-3-35-|




Verse Gap - Guitar 1
e|----------------------|
B|----------------------|
G|--------------------4-|
D|---2---2---5------7-4-|
A|---2---2---5------7-2-|
E|-000-000-333-33-555---|




Bridge - Both Guitars
e|---------------------------------------------------------|
B|---------------------------------------------------------|
G|----------------------------------------------6-7-7/9-7~-|
D|------------------------------------------7-9------------|
A|--------------577577577577-899899899899-9----------------|
E|-577577577577--------------------------------------------|





Chorus and Outro
e|-------------------------------|
B|-------------------------------|
G|-4-4-4----------7-7-7977-7-3/6-|
D|-4-4-4542-2-242-7-7-7977-7-3/6-| Repeat I think 3 or 4 more times
A|-2-2-2542-2-242-5-5-5754-4-1/4-|
E|------320-0-020----------------|


End with a G chord
E-----|
B-----|
G-----|
D-45~-|
A-45~-|
E-23~-|

I hope you enjoyed this wonderful 5 star worthy 100% correct tab!

ENJOY!


| /  slide up
| \  slide down
| h  hammer-on
| p  pull-off
| ~  vibrato

=============================================================================




Hope you enjoy it and I hope this gets your 5 Star approval!


Credit for this album tab - Team Jonas and XxGuitarZer0xX(me)put it together
Suggest correction
comments
print report bad tab
6 comments total. Showing first comments.
0 reply
Brendan9x7 10 wrote on July 28 2009, 09:40 pm

This tab is 100% accurate

Only nit picks is -

Black keys is easier to play a half step down, AND
You don't have hey Baby

But definately for what it is, It is worth 5 Stars!

0 reply
spongesormore 10 wrote on July 29 2009, 05:21 pm

Amazing Tab!!!!

5 stars!

0 reply
mileyjonasfan08 36 wrote on August 18 2009, 01:44 pm

ur missing hey baby

guest
You may want to rate the tab now too:
select rating
Wanna post a correction for this tab? Suggest correction