Oops, an error
Loading. Please wait.

Love Bug Tab

version 1
version 1

Whole song

Interactive

Video

445,456 views 96 this week
27 commentsread comments
1 2 3 4 5
x 71
add to favorites
launch autoscroll
font size
0
reset
how to read this tab
guitar tuner
Autoscroll
slow
fast
+/-
esc
set tempo
stop
Help us to improve Ultimate-Guitar.com Take our survey!
×
Author
[Intro/Verse]

    Bmaj   Amaj   Em
e|-------------------------|
B|-------------------------|
G|--8--8--6--6--9--9--9--9-| 
D|--9--9--7--7--9--9--9--9-|
A|--------------7--7--7--7-|(x1) [Intro]
E|--7--7--5--5-------------|(x4) [Verse]


[Chorus]

    Em             E/D#m        Amaj      Em
e|-------------------------------------------------|
B|-------------------------------------------------|
G|--9--9--9--9--9--9--9--9--6--6--6--6--9--9--9--9-| 
D|--9--9--9--9--9--9--9--9--7--7--7--7--9--9--9--9-|
A|--7--7--7--7--6--6--6--6--------------7--7--7--7-|
E|--------------------------5--5--5--5-------------|(x2)
Suggest correction
comments
print report bad tab
27 comments total. Showing first comments. show 2 bad comments
0 reply
bballgirlsl981 63 Jul 23, 2008 11:14 PM

do u have the rest of the song? (when the louder part comes on?)

guest
You may want to rate the tab now too:
select rating
Wanna post a correction for this tab? Suggest correction