Oops, an error
Loading. Please wait.

Love Bug Tab

version 3
version 3

Whole song

Interactive

Video

328,034 views 138 this week
15 commentsread comments
1 2 3 4 5
x 50
add to favorites
launch autoscroll
font size
0
reset
how to read this tab
guitar tuner
Autoscroll
slow
fast
+/-
esc
set tempo
stop
Help us to improve Ultimate-Guitar.com Take our survey!
×
Author
Difficulty
novice
-------------------------------------------------------------------------------
                                Love Bug - Jonas Brothers
-------------------------------------------------------------------------------
Tabbed by: ilyfudge
Email: ilyfudge@aim.com

Tuning: Standard

        This is my favorite song off their new album!
        In concert, Nick plays Guitar 1, John Taylor plays Guitar 2,
        and Kevin plays mandolin and Guitar 3.
        I saw Nick play Guitar 2 differently in an acoustic performance so  mabye i'll make an 
tab.
        Have fun!
        (I'm also working on the bass and mandolin tabs do message
        me if you want those!)

        *UPDATE!*
        I fixed and added alot of things, and changed the format to make it easier to read. 
you like it!


[Intro]

-Gtr. 1
e|-------------------------|----|--------------------|
B|-------------------------|----|--------------------|
G|----8-8---6-6---9-9-9-9--|----|----8-8---6-6---9~--|
D|----9-9---7-7---9-9-9-9--|-x5-|----9-9---7-7---9~--|
A|---------------7-7-7-7---|----|----------------7~--|
E|---7-7---5-5-------------|----|---7-7---5-5--------|


[Chorus]

-Gtr. 1
e|-------------------------------------------|
B|-------------------------------------------|
G|----9-9-9-9---9-9-9-9---6-6-6-6---9-9-9-9--|
D|----9-9-9-9---9-9-9-9---7-7-7-7---9-9-9-9--| 
A|---7-7-7-7---6-6-6-6-------------7-7-7-7---|
E|-----------------------5-5-5-5-------------|(x2)


[Post-Chorus]

-Gtr. 1
e|---------------------------|
B|---------------------------|
G|----8-8---6-6---9-9---9-9--|
D|----9-9---7-7---9-9---9-9--| 
A|---------------7-7---7-7---|
E|---7-7---5-5---------------|(x2)

-Gtr. 2
e|--------------------------------------------------------------------------------|
B|--------------------------14\----------------------------------------------17\--|
G|---8-9-9-9-8-6-4~--11-13-------8-9-9-9-8-6-4~--15h16-16-16-16--15h16-16-16-16\--|
D|--------------------------------------------------------------------------------|
A|--------------------------------------------------------------------------------|
E|--------------------------------------------------------------------------------|


[Verse]

-Gtr. 1
e|-------------------------|
B|-------------------------|
G|----8-8---6-6---9-9-9-9--|
D|----9-9---7-7---9-9-9-9--| 
A|---------------7-7-7-7---|
E|---7-7---5-5-------------|(x4)

-Gtr. 2
e|---7-7--7---7-7--7---|
B|---9-9--9---9-9--9---|                                      9
G|---9-9--9---9-9--9---|    (play this when Gtr. 1 is playing 9)
D|---------------------|                                      7
A|---------------------|
E|---------------------|(x4)


[Chorus]

-Gtr. 1
e|-------------------------------------------|
B|-------------------------------------------|
G|----9-9-9-9---9-9-9-9---6-6-6-6---9-9-9-9--|
D|----9-9-9-9---9-9-9-9---7-7-7-7---9-9-9-9--| 
A|---7-7-7-7---6-6-6-6-------------7-7-7-7---|
E|-----------------------5-5-5-5-------------|(x2)

-Gtr. 2


[Chorus]

e|--------------------------------|
B|--------------------------------|
G|---13-16-13h16---13-16--13-16---|
D|--------------------------------|
A|--------------------------------|
E|--------------------------------|( x8)


[Verse]

-Gtr. 1
e|-----------------|
B|-----------------|
G|---8~---6~---9~--|
D|---9~---7~---9~--| 
A|---9~---7~---7~--|
E|---7~---5~-------|(x4)

-Gtr. 2
e|---------------|       |---------------|
B|---------------|       |---(3rd-time)--|
G|---------------|       |---------------|
D|---------------|       |---------------|
A|---9~-7~-11~---|       |---11h12-11~---|
E|---------------|(м)    |---------------|


[Interlude]

-All
e|-----------------|
B|-----------------|
G|---9\------------|
D|---9\---or---2~--|
A|---7\--------2~--|
E|-------------0~--|


[Bridge]

-Gtr. 1
e|--------------------------------------------------------------------------------|
B|------------------10-12-10-9--------------------10-12-10-9----------------------|
G|---11^-11^~---11^------------9---11^-11^~---11^------------9---11^-11^`--9------|
D|----------------------------------------------------------------------------11--|
A|---(^ = bend)--------------------------------------------------(` = bend back)--|
E|--------------------------------------------------------------------------------|

e|--------------------------|
B|--------------------------|
G|----------9^-9^`-9--------|
D|---9-9h11----------10-9~--| 
A|--------------------------|
E|--------------------------|(x2)

-Gtr. 2
e|---------------------12------------------------------12-------------------------|
B|------------------14----14-12---------------------14----14-12-------------------|
G|---14^-14^~---14^-------------14---14^-14^~---14^-------------14---14^-14^--12--|
D|--------------------------------------------------------------------------------|
A|--------------------------------------------------------------------------------|
E|--------------------------------------------------------------------------------|

e|--------------------------------------------|
B|--------------------------------------------|
G|-------------------14--14^-14^-14^-14-13~---|
D|---14--11-11-11h14--------------------------|
A|--------------------------------------------|
E|--------------------------------------------|

-Gtr. 3
e|--------------------------------------------------------------------------|
B|--------------------------------------------------------------------------|
G|---9-9-9-9-9-9-9-9---9-9-9-9-9-9-9-9---6-6-6-6-6-6-6-6---9-9-9-9-9-9-9-9--|
D|---9-9-9-9-9-9-9-9---9-9-9-9-9-9-9-9---7-7-7-7-7-7-7-7---9-9-9-9-9-9-9-9--| 
A|---7-7-7-7-7-7-7-7---6-6-6-6-6-6-6-6---7-7-7-7-7-7-7-7---7-7-7-7-7-7-7-7--|
E|---------------------------------------5-5-5-5-5-5-5-5--------------------|(x2)


[Chorus]

-All
e|----------------------------------------------------------------------------------------------------|
B|----------------------------------------------------------------------------------------------------|
G|---9-9-9-9-9-9-9-9-9-9-9-9-9-9-9-9---9-9-9-9-9-9-9-9-9-9-9-9-9-9-9----------------------------------|
D|---9-9-9-9-9-9-9-9-9-9-9-9-9-9-9-9---9-9-9-9-9-9-9-9-9-9-9-9-9-9-9---x-7-7-7-7-7-7-7-7-7-7-7-7-7-7--|
A|---7-7-7-7-7-7-7-7-7-7-7-7-7-7-7-7---6-6-6-6-6-6-6-6-6-6-6-6-6-6-6---x-7-7-7-7-7-7-7-7-7-7-7-7-7-7--|
E|---------------------------------------------------------------------x-5-5-5-5-5-5-5-5-5-5-5-5-5-5--|

-Gtr. 2 & 3
e|-------------------------------------|
B|-------------------------------------|
G|---9-9-9-9-9-9-9-9-9-9-9-9-9-9-9-9---|
D|---9-9-9-9-9-9-9-9-9-9-9-9-9-9-9-9---|
A|---7-7-7-7-7-7-7-7-7-7-7-7-7-7-7-7---|
E|-------------------------------------|

-Gtr. 1
e|------------------------------------------------|
B|------------------------------------------------|
G|------------------------------------------------|
D|---2-2-2-2-2-2-2-2------------------------------|
A|---2-2-2-2-2-2-2-2------------------------------|
E|---0-0-0-0-0-0-0-0---/12-12-12-12-12-12-12-12---|

-All
e|----------------------------------------------------------------------------------------------------|
B|----------------------------------------------------------------------------------------------------|
G|---9-9-9-9-9-9-9-9-9-9-9-9-9-9-9-9---9-9-9-9-9-9-9-9-9-9-9-9-9-9-9----------------------------------|
D|---9-9-9-9-9-9-9-9-9-9-9-9-9-9-9-9---9-9-9-9-9-9-9-9-9-9-9-9-9-9-9---x-7-7-7-7-7-7-7-7-7-7-7-7-7-7--|
A|---7-7-7-7-7-7-7-7-7-7-7-7-7-7-7-7---6-6-6-6-6-6-6-6-6-6-6-6-6-6-6---x-7-7-7-7-7-7-7-7-7-7-7-7-7-7--|
E|---------------------------------------------------------------------x-5-5-5-5-5-5-5-5-5-5-5-5-5-5--|

-Gtr. 1 & 3
e|----------------------------------------|
B|----------------------------------------|
G|----------------------------------------|
D|---4-4-4-4-4-4-4-4---7-7-7-7---9-9-9-9--|
A|---4-4-4-4-4-4-4-4---7-7-7-7---9-9-9-9--|
E|---2-2-2-2-2-2-2-2---5-5-5-5---7-7-7-7--|

-Gtr. 2
e|--------------------------------------|
B|---------------------------17----19\--|
G|-------9-------9-----15h16----16------|
D|---7h9---9-7h9---9--------------------|
A|--------------------------------------|
E|--------------------------------------|


[Outro]

-All
e|-----------------|
B|-----------------|
G|---9~------------|
D|---9~---or---2~--|
A|---7~--------2~--|
E|-------------0~--|

************************************

| /  slide up
| \  slide down
| h  hammer-on
| p  pull-off
| ~  vibrato
| +  harmonic
| x  Mute note

************************************
Suggest correction
comments
print report bad tab
15 comments total. Showing first comments.
+7 reply
Slash42x 172 Aug 23, 2008 03:08 AM

It's a good tab, I'm glad you did more than the freaking basic backing chords, but the bridge (solo) is wrong. Check out my tab for it. 4 stars. good tab

+3 reply
*greentea* 10 Sep 13, 2008 03:18 PM

really good especially the verses

+3 reply
_punkee_ 20 Nov 07, 2008 02:53 AM

gooD i give you five for the effort i appreciate

guest
You may want to rate the tab now too:
select rating
Wanna post a correction for this tab? Suggest correction