Oops, an error
Loading. Please wait.

Make It Right Tab

version 2
version 2

Whole song

2,484 views 3 this week
no commentswrite comment
1 2 3 4 5
accurate
x 1
add to favorites
launch autoscroll
font size
0
reset
how to read this tab
guitar tuner
Tab Pro tools
  • play this tab
  • loop segment
  • change instrument
  • show fretboard
  • metronome
Autoscroll
slow
fast
+/-
esc
set tempo
stop
Contributor
Difficulty
novice
                      Make It Right - Joe Jonas

Beautiful song!
It's like a mixture of 'Gotta Find You' and 'Turn Right' :)
I'm fairly certain that this is accurate, but I could be wrong...
Leave a comment, if you have any corrections :D

Chords:
    G  G/B  Cadd9  Am
e|--3---3-----3-----0--|
B|--3---3-----3-----1--|
G|--0---0-----0-----2--|
D|--0---x-----x-----2--|
A|--x---2-----3-----0--|
E|--3------------------|

Intro:
    G      G/B    Cadd9            G      G/B    Cadd9 
e|----------------------------------------------------------3~--|
B|------3-------3-------3------3-------3-------3-------3----3~--|
G|----0---0---0---0---0---0--0---0---0---0---0---0---0---0--0~--|
D|----------------------------------------------------------2~--|
A|----------2-------3----------------------2-------3--------3~--|
E|--3------------------------------3----------------------------|

Verse:
G          G/B               Cadd9 
You say you'll know when you really find the one
G            G/B               Cadd9 
But it's hard to tell with the damage that's been done
G            G/B                  Cadd9              
But I’d like to say that it's your fault but I know better
Am            G/B                 Cadd9
‘Cause I'm a fool to think you'll wait around forever

Chorus:
      G G/B        Cadd9            G G/B        Cadd9
Maybe I could have loved you, maybe I could have shown
       G             G/B                Cadd9 
That I still do care about ya more than you could know
               G   G/B      Cadd9 
Don't say it's too late to try, to make it right
comments
We did not receive enough feedback on this tab! Please rate:
print report bad tab
1 2 3 4 5
I want to post or [tab]
guest
You may want to rate the tab now too:
select rating
Please do not post tabs as comments. Select "correction" instead!