Oops, an error
Loading. Please wait.

Mandy Tab

version 1
version 1

Whole song

Interactive

9,688 views 1 this week
9 commentsread comments
1 2 3 4 5
x 11
add to favorites
launch autoscroll
font size
0
reset
how to read this tab
guitar tuner
Autoscroll
slow
fast
+/-
esc
set tempo
stop
Help us to improve Ultimate-Guitar.com Take our survey!
×
Difficulty
intermediate
bobmcfobb893@hotmail.com

e|--------       ---------------------------------------|
B|--------       ---------------------------------------|
G|--------       ------66------88---88-1010--13-13--8---|
D|-666-----(let  --66--66--66--88---88-1010--13-13--8---|
A|-666----- ring)--66--44--66--66---66--88---11-11--6---|
E|-444-----      --44------44---------------------------|

verse1:
"Mandy used to be"...
e|---------------------------------------------------------|
B|---------------------------------------------------------|
G|----66----88----66---1010-88-------1010-88-6-8-10-12-13--|
D|-66-66-66-88-66-66-6-1010-88-66-66-1010-88-6-8-10-12-13--|
A|-66-44-66-66-66-44-6--88--66-66-66--88--66-4-6--8-10-11--|
E|-44----44----44----4---------44-44-----------------------|

chorus:
"Mandy always laughs"...
e|-----------------------------|     |--------------|--11-11-11-11-13-11|
B|-----------------------------|     |--------------|-------------------|
G|-------88-88-1111-1111-66-66-|     |-88-1010-1313-|-------------------|
D|-66-66-88-88-1111-1111-66-66-|2x   |-88-1010-1313-|2x-----------------|
A|-66-66-66-66--99---99--44-44-|     |-66--88--1111-|-------------------|
E|-44-44-----------------------|     |--------------|-------------------|

verse 2:
"Mandy always"...
e|-------------------------------------------------------------|
B|-------------------------------------------------------------|
G|----66----88----66----88-1010-88-------1010-88-6-8-10-12-13--|
D|-66-66-66-88-66-66-66-88-1010-88-66-66-1010-88-6-8-10-12-13--|
A|-66-44-66-66-66-44-66-66--88--66-66-66--88--66-4-6--8-10-11--|
E|-44----44----44----44------------44-44-----------------------|

chorus:
"Mandy always laughs"...
e|-----------------------------|     
B|-----------------------------|     
G|-------88-88-1111-1111-66-66-|     
D|-66-66-88-88-1111-1111-66-66-|2x   
A|-66-66-66-66--99---99--44-44-|     
E|-44-44-----------------------|     

Bridge
"when every thing's"...
e|-----------------|
B|-----------------|
G|-----------------|
D|-66-6-66--678910-|4x
A|-66-6-66--678910-|
E|-44-4-44--4567-8-| 

chorus:
"Mandy always laughs"...
e|-----------------------------|     
B|-----------------------------|     
G|-------88-88-1111-1111-66-66-|     
D|-66-66-88-88-1111-1111-66-66-|4x   (sorry don't know the very last part)
A|-66-66-66-66--99---99--44-44-|     
E|-44-44-----------------------|
Suggest correction
comments
print report bad tab
9 comments total. Showing first comments.
0 reply
HaleylovesJB 10 Jun 20, 2007 03:03 PM

This is completly wrong sorry I saw the real Jonas brothers tabs

-1 reply
HaleylovesJB 10 Jun 20, 2007 03:03 PM

I saw the real tabs

+2 reply
mlongstreth1 31 Nov 29, 2007 07:59 PM

Acutally I think that it sounds pretty good once you can actually get your speed up. Nice work! Ps. Where did you get
the real Jonas Tabs? (for haleylovesJB)

guest
You may want to rate the tab now too:
select rating
Wanna post a correction for this tab? Suggest correction