Oops, an error
Loading. Please wait.

Much Better Tab

version 1
version 1

Whole song

10,017 views 1 this week
no commentswrite comment
1 2 3 4 5
excellent!
x 9
add to favorites
launch autoscroll
font size
0
reset
how to read this tab
guitar tuner
Tab Pro tools
  • play this tab
  • loop segment
  • change instrument
  • show fretboard
  • metronome
×
Best way to learn
"Much Better"
Autoscroll
slow
fast
+/-
esc
set tempo
stop
Contributor
Difficulty
intermediate
----------------------------------------------------------------------------
                             Much Better - Jonas Brothers
----------------------------------------------------------------------------

Tabbed by: XxGuitarZer0xX

Email: Spongebobs400s@hotmail.com

Tuning: Standard

Horns solo is coming soon!


Intro - Piano/Synth thingy (~ = a hold)  May continue during verse!
e|---------------11-------9----------11------------------------------------|
B|-9-11-----9-11----11~-9---11~-9-11----11~-9-11------9-11-----11-9-11-----|
G|------11~--------------------------------------11~-------11~----------10-|
D|-------------------------------------------------------------------------|
A|-------------------------------------------------------------------------|
E|-------------------------------------------------------------------------|

Intro - Guitar(s) (PM = Palm Mute) (* = where to PM)
e|---------------------------------------------------------------------|
B|---------------------------------------------------------------------|
G|-444444444444444------------------4444444444444444----------66666666-|
D|-444444444444444-4444444444444444-4444444444444444-44444444-66666666-|
A|-222222222222222-4444444444444444-2222222222222222-44444444-44444444-|
E|-----------------2222222222222222------------------22222222----------|
PM *************** **************** **************** ******** ********



Verses -(This is for all verses!)(PM = Palm Mute)(* = where to PM)
e|------------------------------------------------------------------|
B|------------------------------------------------------------------|
G|-444-444-444-444-444-444-444-444----------------------------------|
D|-444-444-444-444-444-444-444-444--444-444-444-444-444-444-444-444-|
A|-222-222-222-222-222-222-222-222--444-444-444-444-444-444-444-444-|
E|----------------------------------222-222-222-222-222-222-222-222-|
PM *** *** *** *** *** *** *** ***  *** *** *** *** *** *** *** ***


Continued underneath

e|-------------------------------------------------------------------|
B|-------------------------------------------------------------------|
G|-444-444-444-444-444-444-444-444-------------------666-666-666-666-|
D|-444-444-444-444-444-444-444-444--444-444-444-444--666-666-666-666-|
A|-222-222-222-222-222-222-222-222--444-444-444 444--444-444-444-444-|
E|----------------------------------222-222-222-222------------------|
PM *** *** *** *** *** *** *** ***  *** *** *** ***  *** *** *** ***

Repeat that whole thing one more time and thats the whole verse.



Chorus - Both Guitars (This is for any time the chorus plays)
e|---------------------------------------------------------------------|
B|---------------------------------------------------------------------|
G|-444444444444444------------------4444444444444444----------66666666-|
D|-444444444444444-4444444444444444-4444444444444444-44444444-66666666-| x2
A|-222222222222222-4444444444444444-2222222222222222-44444444-44444444-|
E|-----------------2222222222222222------------------22222222----------|
PM *************** **************** **************** ******** ********

Then Repeat the Verse

Then repeat the Chorus


!!!!!!SOLO!!!!!!(part 1)(one guitar plays this)
(b = Bend)
(h = hammeron)
(p = pulloff)
(/ = Slide to a note)
(\ = Slide away from the note you just played)
e|------------------------------------------------------12~~-|
B|----------------------------------------------10-12b14-----|
G|------------6-9-9b11~~\-9h11p9h11p9h11p9h11p9--------------|
D|----/7~-/9~------------------------------------------------|
A|-/9~-------------------------------------------------------|
E|-----------------------------------------------------------|

!!!!!!SOLO!!!!!!(Part 2)(one guitar plays this)
e|----------------------------|
B|-----------------------/19\-|
G|-9h11p9h11p9h11p9h11p9------|
D|----------------------------|
A|----------------------------|
E|----------------------------|

!!!!!!SOLO!!!!!!(part 3)
(this part was hard to tab such fast notes!)(I think I got it right though!)
(keep finger planted on b and e string 11 fret strum 14 pull off to 12 then 11 then go 
the next string and do the same thing)

e|-14p12p11----------14p12p11----------14p12p11----------|
B|----------14p12p11----------14p12p11----------14p12p11-|
G|-------------------------------------------------------| x4~!
D|-------------------------------------------------------|
A|-------------------------------------------------------|
E|-------------------------------------------------------|
DO THIS 4 TIMES!
I didn't want to tab out the same thing 24 times lol!
so repeat those

!!!!!!SOLO!!!!!!(part 4)
e|--------------------------------------------|
B|-14p12p11------------------------------/19~-|
G|----------14p12p11-11h14p11h12--11~---------|
D|------------------------------------9~\-----|
A|--------------------------------------------|
E|--------------------------------------------|

Yay that solo was hard to tab!


Outro - (both guitars) (PM = Palm Mute) (* = the notes that are palm muted)
e|---------------------------------------------------------------------|
B|---------------------------------------------------------------------|
G|-444444444444444------------------4444444444444444----------66666666-|
D|-444444444444444-4444444444444444-4444444444444444-44444444-66666666-| x4
A|-222222222222222-4444444444444444-2222222222222222-44444444-44444444-|
E|-----------------2222222222222222------------------22222222----------|
PM *************** **************** **************** ******** ********

100% tab done by ear. There ya go!


Copyright to me ( XxGUITARZER0xX)

If anyone has question just comment!
comments
print report bad tab
I want to post or [tab]
guest
You may want to rate the tab now too:
select rating
Please do not post tabs as comments. Select "correction" instead!