Oops, an error
Loading. Please wait.

Paranoid Tab

version 1
version 1

Whole song

Interactive

26,551 views 3 this week
2 commentsread comments
1 2 3 4 5
worth learning
x 3
add to favorites
launch autoscroll
font size
0
reset
how to read this tab
guitar tuner
Autoscroll
slow
fast
+/-
esc
set tempo
stop
Help us to improve Ultimate-Guitar.com Take our survey!
×
Author
-------------------------------------------------------------------------------
                            Paranoid - Jonas Brothers
-------------------------------------------------------------------------------
Tabbed by: ijonas4
Email: linesvinesandtryingtimes4@gmail.com

Tuning:

Intro/ Verse:
e|-----------------------------------------------------------------------------|
B|-----------------------------------------------------------------------------|
G|-----------------------------------------------------------------------------|
D|-----------------------------------------------------------------------------|
A|-8-8-8-6-6-6-----------------------------------------------------------------|
E|-------------6-6-6-6-6---x10-------------------------------------------------|

Pre-Chorus:
e|---------------------------------------------------------------------------|
B|---------------------------------------------------------------------------|
G|---------------------------------------------------------------------------|
D|--6--8--6--8---------------------------------------------------------------|
A|--6--8--6--8---------------------------------------------------------------|
E|--4--6--4--6---------------------------------------------------------------|

Chorus:
e|----------------------------------------------------------------------------------|
B|----------------------------------------------------------------------------------|
G|-----10--8------------------------------------------------------------------------|
D|----10--8----8--------------------------------------------------------------------|
A|---8---6-----8--------------------------------------------------------------------|
E|-------------6----x HOWEVER-------------------------------------------------------|

Bridge
e|-------------------------------------------------------------------------------------|
B|-------------------------------------------------------------------------------------|
G|-------------------------------------------------------------------------------------|
D|----6---8-----------6---------6--8--5--8-----------6---------------------------------|
A|----6---8---88688688-868------6--8--5--8---88688688-868------------------------------|
E|----4---6----------------x2---4--6--3--6---------------------------------------------|
Suggest correction
Give kudos to tab author, rate the tab!
1 2 3 4 5
comments
print report bad tab
2 comments total.
-1 reply
teamjonas 1,061 wrote on May 13 2009, 12:00 pm

I don't think it's quite accurate.
It's a bit confusing too.
Check out my tab.

0 reply
ijonas4 30 wrote on May 14 2009, 06:34 pm

my first TAB so bear with me

guest
You may want to rate the tab now too:
select rating
Wanna post a correction for this tab? Suggest correction