Oops, an error
Loading. Please wait.

Paranoid Tab

version 2
version 2

Whole song

Interactive

31,973 views 18 this week
1 commentread comment
1 2 3 4 5
excellent!
x 7
add to favorites
launch autoscroll
font size
0
reset
how to read this tab
guitar tuner
Tab Pro tools
  • play this tab
  • loop segment
  • change instrument
  • show fretboard
  • metronome
Autoscroll
slow
fast
+/-
esc
set tempo
stop
Contributor
Paranoid – Jonas Brothers

I basically studied how Kevin plays it from a live video.
I’m pretty sure it’s accurate.
If there are any mistakes, let me know :)
For the intro/verses, you can play the power chords if you want.
But, Kevin doesn't, he only plays one string.
The riff in the Bridge is a bit tricky - practice it, a LOT.

Intro:
e|---------------------------------------------|
B|---------------------------------------------|
G|---------------------------------------------|
D|---------------------------------------------|
A|--888--6666-----------888--6666--------------|
E|------------666666666-----------666666666----|

Verse:
e|---------------------------------------------|
B|---------------------------------------------|
G|---------------------------------------------|
D|---------------------------------------------|   x4
A|--888--6666-----------888--6666--------------|
E|------------666666666-----------666666666----|

Pre-Chorus:
e|--------------|
B|--------------|
G|-----5~----8--|
D|--5~-5~-5~-8~-|
A|--5~-3~-5~-6~-|
E|--3~----3~----|

Chorus
e|-----------------------------------------------|
B|-----------------------------------------------|
G|--101010-8888-----------101010-8888------------|
D|--101010-8888-888888888-101010-8888-888888888--|   x2
A|--8-8-8--6666-888888888-8-8-8--6666-888888888--|
E|--------------666666666-------------666666666--|

Post-Chorus:
e|----------------------------------------------|
B|----------------------------------------------|
G|----------------------------------------------|
D|----------------------------------------------|
A|--888--6666--------------888--6666------------|
E|------------666666666--------------666666666--|
      
Verse:
e|----------------------------------------------|
B|----------------------------------------------|
G|----------------------------------------------|
D|----------------------------------------------|   x4
A|--888--6666--------------888--6666------------|
E|------------666666666--------------666666666--|

Pre-Chorus:
e|--------------|
B|--------------|
G|-----5~----8--|
D|--5~-5~-5~-8~-|
A|--5~-3~-5~-6~-|
E|--3~----3~----|

Chorus:
e|-----------------------------------------------|
B|-----------------------------------------------|
G|--101010-8888-----------101010-8888------------|
D|--101010-8888-888888888-101010-8888-888888888--|   x4
A|--8-8-8--6666-888888888-8-8-8--6666-888888888--|
E|--------------666666666-------------666666666--|

Bridge:
e|--------------------------------------------|
B|--------------------------------------------|
G|--------------------------------------------|
D|--66666666-88888888---------------6---------| x2
A|--66666666-88888888-8-8-6h8-6h8-8---8-6h8-8-|
E|--44444444-66666666-------------------------|

e|------------------------------------------------------------------x-| 
B|------------------------------------------------------------------x-|
G|------------------------------------------------------------------x-|
D|--66666666-88888888-55555555-44444444-4~----------------6---------x-|
A|--66666666-88888888-55555555-44444444-4~--8-8-6h8-6h8-8---8-6h8-8-x-|
E|--44444444-66666666-33333333-22222222-2~--------------------------x-|

Chorus:
e|-----------------------------------------------|
B|-----------------------------------------------|
G|--101010-8888-----------101010-8888------------|
D|--101010-8888-888888888-101010-8888-888888888--|   x4
A|--8-8-8--6666-888888888-8-8-8--6666-888888888--|
E|--------------666666666-------------666666666--|

Outro:
e|----------------------------------------------x-|
B|----------------------------------------------x-|
G|--101010-8888-----------101010-8888-----------x-|
D|--101010-8888-888888888-101010-8888-888888888-x-|   
A|--8-8-8--6666-888888888-8-8-8--6666-888888888-x-|
E|--------------666666666-------------666666666-x-|
comments
print report bad tab
1 comment total.
0 reply
ipodaddict616 wrote on May 30 2009, 06:29 pm

Your tab is really good!
It takes a little while to get the hang of, but definetly worth it. Thanks :)

I want to post or [tab]
guest
You may want to rate the tab now too:
select rating
Please do not post tabs as comments. Select "correction" instead!