Oops, an error
Loading. Please wait.

Play My Music Tab

version 1
version 1

Whole song

Interactive

47,622 views 27 this week
6 commentsread comments
1 2 3 4 5
accurate
x 8
add to favorites
launch autoscroll
font size
0
reset
how to read this tab
guitar tuner
Autoscroll
slow
fast
+/-
esc
set tempo
stop
Help us to improve Ultimate-Guitar.com Take our survey!
×
Difficulty
novice
Tabbed By: Kendra
kansassgirl@yahoo.com


NOTE* - I'm not positive that the bridge is correct, but I'm pretty sure the rest of it
If you have any questions or requests for other tabs please email me.


* = staccato
D = down
U = up
DU = down/up (quickly)

Intro

E|--------------------|
A|--------------------|
D|-7-7-7-7-7-7-77-77--|
G|-7-7-7-7-7-7-77-77--|x2
B|-5-5-5-5-5-5-55-55--|
E|--------------------|
   * * * * * *
   D D D D D D DU DU

Verses 1 & 2 (same strum pattern as intro)

E|--------------------------------------------------------------------------------|
A|--------------------------------------------------------------------------------|
D|-7-7-7-7-7-7-77-77--------------------------------------------------------------|
G|-7-7-7-7-7-7-77-77---7-7-7-7-7-7-77-77---9-9-9-9-9-9-99-99---7-7-7-7-7-7-77-77--|x2
B|-5-5-5-5-5-5-55-55---7-7-7-7-7-7-77-77---9-9-9-9-9-9-99-99---7-7-7-7-7-7-77-77--|
E|---------------------5-5-5-5-5-5-55-55---7-7-7-7-7-7-77-77---5-5-5-5-5-5-55-55--|
   * * * * * *         * * * * * *         * * * * * *         * * * * * *

Pre-Chorus

E|---------------------------------------------------------------------------------|
A|---------------------------------------------------------------------------------|
D|----------------7-77--7-77-------------------------------------------------------|
G|-5-55--5-55-----7-77--7-77-----7-77--7-77--7-77--7-77-----5-55--5-55--5-55--5----|
B|-5-55--5-55-----5-55--5-55-----7-77--7-77--7-77--7-77-----5-55--5-55--5-55--5----|
E|-3-33--3-33--------------------5-55--5-55--5-55--5-55-----3-33--3-33--3-33--3----|

----------------------------|
----------------------------|
----------------------------|
55--5-55--5-55--5-55--5-55--|
55--5-55--5-55--5-55--5-55--|
33--3-33--3-33--3-33--3-33--|

   D DU (continue this pattern throughout entire pre-chorus)

Chorus (same strum pattern as pre-chorus)

E|----------------------------------------|
A|----------------------------------------|
D|-7-77-----------------------------------|
G|-7-77-x4---7-77------9-99------5-55-----|repeat twice
B|-5-55------7-77-x4---9-99-x4---5-55-x4--|
E|-----------5-55------7-77------3-33-----|

Bridge (same strum pattern as pre-chorus and chorus)

E|--------------------------------------------------------|
A|--------------------------------------------------------|
D|-11-1111------9-99------11-1111------9-99------12-1212--|
G|-11-1111-x4---9-99-x4---11-1111-x4---9-99-x4---12-1212--|
B|--9--9-9------7-77-------9--9-9------7-77------10-1010--|
E|--------------------------------------------------------|

The first half of the chorus that comes after the bridge is as follows...

E|----------------------------------------------------------|
A|----------------------------------------------------------|
D|-7--------------------------------------------------------|
G|-7-let ring-----7--------------9--------------5-----------|
B|-5--------------7-let ring-----9-let ring-----5-let ring--|
E|----------------5--------------7--------------3-----------|
Suggest correction
What's this?
You can suggest a correction to this tab. Community and Mods will review your correction and vote to approve or reject it.
comments
print report bad tab
6 comments total. Showing first comments.
0 reply
slashead 12 wrote on June 19 2008, 09:19 am

u put the power chords on backwards.

0 reply
Joce10 65 wrote on June 22 2008, 10:56 am

its wrong in some places
in a week ill place here a tab that's 100 % correct
dont worry it's not that bad :D

anyway good tab

0 reply
RocknrollHero 15 wrote on June 25 2008, 05:36 pm

its alright but the strum pattern is unnatural

guest
You may want to rate the tab now too:
select rating
Please do not post tabs as comments. Select "correction" instead!