Oops, an error
Loading. Please wait.

Play My Music Tab

version 2
version 2

Whole song

Interactive

28,147 views 9 this week
10 commentsread comments
1 2 3 4 5
x 6
add to favorites
launch autoscroll
font size
0
reset
how to read this tab
guitar tuner
Autoscroll
slow
fast
+/-
esc
set tempo
stop
Help us to improve Ultimate-Guitar.com Take our survey!
×
Difficulty
intermediate
This song is pretty upbeat, but for an exact time, set ur met to 175. and thatll b the 
note timing. other than that this ong is pretty wasy, just make sure u mute the string at 
right times =D

Hopefully i heard this and tabbed it out pretty good, any crits, just email me at 
im pretty sure its accurate.

rate it good please =)


Intro-


E-------------------|
A-5-5-5-5-5-5-55-55-|
D-x-x-x-x-x-x-xx-xx-|  X2
G-7-7-7-7-7-7-77-77-|
B-------------------|
E-------------------|

After you hear him sing "music" in the intro, swith to this

E-------------------|
A-5-5-5-5-5-5-55-55-|
D-7-7-7-7-7-7-77-77-|  X2
G-7-7-7-7-7-7-77-77-|
B-------------------|
E-------------------|


Verse 1-


E------------------------------------------------------------------|
A-5-5-5-5-5-5-55-55-4-4-4-4-4-4-44-44-7-7-7-7-7-7-77-77------------|
D-7-7-7-7-7-7-77-77-7-7-7-7-7-7-77-77-9-9-7-9-9-9-99-99------------|
G-7-7-7-7-7-7-77-77-6-6-6-6-6-6-66-66-9-9-9-9-9-9-99-99------------|
B------------------------------------------------------------------|
E------------------------------------------------------------------|

E-5-5-5-5-5-5-55-----Then you pretty much just repeat this whole bar--------|
A-7-7-7-7-7-7-774----twice, except instead of the last note, just-----------|
D-7-7-7-7-7-7-777----keep on play the A power chord.------------------------|
G---------------6-----------------------------------------------------------|
B---------------------------------------------------------------------------|
E---------------------------------------------------------------------------|

Pre Chorus-


E-3-3-33-33-----------5-5-6-6-7-7-6-6-3-3-3-3-3-3-3-3-3-3-3-3-3-3-3-3----|
A-5-5-55-55-5-5-55-55-7-7-9-9-9-9-9-9-5-5-5-5-5-5-5-5-5-5-5-5-5-5-5-5----|
D-5-5-55-55-7-7-77-77-7-7-8-8-9-9-8-8-5-5-5-5-5-5-5-5-5-5-5-5-5-5-5-5----|
G-----------7-7-77-77----------------------------------------------------|
B------------------------------------------------------------------------|
E------------------------------------------------------------------------|

Chorus-


E---------------------------------0-0-0-0-0-0-0-0-3-3-3-3-6-6-444444-----|
A-5-5-5-5-4-4-4-4-2-2-2-2-0-0-0-0-2-2-2-2-2-2-2-2-5-5-5-5-9-9-777777-----|
D-7-7-7-7-7-7-7-7-4-4-4-4-2-2-2-2-2-2-2-2-2-2-2-2-5-5-5-5-8-8-666666-----|
G-7-7-7-7-6-6-6-6-4-4-4-4-2-2-2-2----------------------------------------|
B------------------------------------------------------------------------|
E------------------------------------------------------------------------|


now you play that all over just once i think, then u get to the most awesomest part of 
song, but the second time u play the chorus u play the last 2 chords for a certain amount 
time, just listen to the song to get the rythyms.


Bridge-


E-------------------------------5-3-3-3-3-3-3-3-2-0-0-0-0-3~~~~3--------|
A-2-2-2-2-2-2-2-4-5-5-5-5-5-5-5-7-5-5-5-5-5-5-5-5-2-2-2-2------2--------|
D-4-4-4-4-4-4-4-7-7-7-7-7-7-7-7-7-5-5-5-5-5-5-5-4-2-2-2-2------0--------|
G-4-4-4-4-4-4-4-6-7-7-7-7-7-7-7--------------------------------0--------|
B--------------------------------------------------------------3--------|
E--------------------------------------------------------------3--------|


Soft Chorus-


E------------------0~--3~--6-6-------------------------------------------|
A-5~--4~--9~---7~--2~--2~--9-9-444444-----then you just play the chorus--|
D-x~--x~--x~---x~--2~--0~--8-8-777777-----over and over again until the--|
G-7~--7~--11~--9~--1~--0~------666666-----last one, then you just play --|
B------------------0~--3~-----------------the last 2  chords in that ----|
E------------------0~--3~-----------------funky rythym again.------------|


well thats pretty much it of the most awesomest song on Camp Rock EVER.
Suggest correction
comments
print report bad tab
10 comments total. Showing first comments.
+5 reply
paintballaddict 69 Jul 21, 2008 02:09 PM

ok the tab bars should go like this
E
B
G
D
A
E

+1 reply
slotion86 10 Jul 22, 2008 01:55 PM

yea i just got tripped uo cuz im a lefty lol

+1 reply
slotion86 10 Jul 22, 2008 01:56 PM

and the 3rd note in the verse should actually b a B power chord.
sorry guys

guest
You may want to rate the tab now too:
select rating
Wanna post a correction for this tab? Suggest correction