Oops, an error
Loading. Please wait.

Play My Music Tab

version 3
version 3

Whole song

Interactive

6,389 views 1 this week
no commentswrite comment
1 2 3 4 5
accurate
x 3
add to favorites
launch autoscroll
font size
0
reset
how to read this tab
guitar tuner
Tab Pro tools
  • play this tab
  • loop segment
  • change instrument
  • show fretboard
  • metronome
×
Best way to learn
"Play My Music"
Autoscroll
slow
fast
+/-
esc
set tempo
stop
Contributor
Difficulty
novice
i used this vid to make the tab:

http://www.youtube.com/watch?v=SVhUXr6lYgw

Artist: Jonas Brothers
Song: Play My Music


D = down
U = up
DU = down/up (quickly)

Intro

E|--------------------|
A|--------------------|
D|-7-7-7-7-7-7-77-77--|
G|-7-7-7-7-7-7-77-77--|x2
B|-5-5-5-5-5-5-55-55--|
E|--------------------|
   D D D D D D DU DU

Verses 1 & 2 (same strum pattern as intro)

e|---------------------------------------------------------------------------------|
B|---------------------------------------------------------------------------------|
G|-7-7-7-7-7-7-77-77---7-7-7-7-7-7-77-77--------------------------------------66---|
D|-7-7-7-7-7-7-77-77---7-7-7-7-7-7-77-77---9-9-9-9-9-9-99-99---7-7-7-7-7-7-77-66---|
A|-5-5-5-5-5-5-55-55---4-4-4-4-4-4-44-44---9-9-9-9-9-9-99-99---7-7-7-7-7-7-77-44---|
E|-----------------------------------------7-7-7-7-7-7-77-77---5-5-5-5-5-5-55------|

e|---------------------------------------------------------------------------------|
B|---------------------------------------------------------------------------------|
G|-7-7-7-7-7-7-77-77---7-7-7-7-7-7-77-77-------------------------------------------|
D|-7-7-7-7-7-7-77-77---7-7-7-7-7-7-77-77---9-9-9-9-9-9-99-99---7-7-7-7-7-7-77-77---|
A|-5-5-5-5-5-5-55-55---4-4-4-4-4-4-44-44---9-9-9-9-9-9-99-99---7-7-7-7-7-7-77-77---|
E|-----------------------------------------7-7-7-7-7-7-77-77---5-5-5-5-5-5-55-55---|

Pre-Chorus

e|----------------------------------------------------------------------------------|
B|----------------------------------------------------------------------------------|
G|--------------7-7-7777------------------------------------------------------------|
D|-5-5-5555-----7-7-7777----7-7-7777--7-7-7777----5-5-5555--------------------------|
A|-5-5-5555-----5-5-5555----7-7-7777--7-7-7777----5-5-5555-x4-----------------------|
E|-3-3-3333-----------------5-5-5555--5-5-5555----3-3-3333--------------------------|
   D D DUDU.........


Chorus (same strum pattern as pre-chorus)

e|-------------------------------------------------------------------------|
B|-------------------------------------------------------------------------|
G|-7-7-7777--5-5-5555----------------------1-1-1111------------------------|
D|-7-7-7777--5-5-5555--9-9-9999--7-7-7777--2-2-2222-x2--5-5-5555--8-8-8888-|x2
A|-5-5-5555--4-4-4444--9-9-9999--7-7-7777--2-2-2222-----5-5-5555--8-8-8888-|
E|---------------------7-7-7777--5-5-5555---------------3-3-3333--6-6-6666-|

Bridge (same strum pattern as pre-chorus and chorus)

e|--------------------|
B|--------------------|
G|-7-7-7-7-7-7-77-77--|
D|-7-7-7-7-7-7-77-77--|x2
A|-5-5-5-5-5-5-55-55--|
E|--------------------|
   D D D D D D DU DU

Verses 1 & 2 (same strum pattern as intro)

e|---------------------------------------------------------------------------------|
B|---------------------------------------------------------------------------------|
G|-7-7-7-7-7-7-77-77---7-7-7-7-7-7-77-77--------------------------------------66---|
D|-7-7-7-7-7-7-77-77---7-7-7-7-7-7-77-77---9-9-9-9-9-9-99-99---7-7-7-7-7-7-77-66---|
A|-5-5-5-5-5-5-55-55---4-4-4-4-4-4-44-44---9-9-9-9-9-9-99-99---7-7-7-7-7-7-77-44---|
E|-----------------------------------------7-7-7-7-7-7-77-77---5-5-5-5-5-5-55------|


e|--------------------------------------------------------------------------------|
B|--------------------------------------------------------------------------------|
G|-7-7-7-7-7-7-77-77---7-7-7-7-7-7-77-77------------------------------------------|
D|-7-7-7-7-7-7-77-77---7-7-7-7-7-7-77-77---9-9-9-9-9-9-99-99---7-7-7-7-7-7-77-77--|
A|-5-5-5-5-5-5-55-55---4-4-4-4-4-4-44-44---9-9-9-9-9-9-99-99---7-7-7-7-7-7-77-77--|
E|-----------------------------------------7-7-7-7-7-7-77-77---5-5-5-5-5-5-55-55--|
   * * * * * *         * * * * * *         * * * * * *         * * * * * *

Pre Chorus

e|----------------------------------------------------------------------------------|
B|----------------------------------------------------------------------------------|
G|--------------7-7-7777------------------------------------------------------------|
D|-5-5-5555-----7-7-7777----7-7-7777--7-7-7777----5-5-5555--------------------------|
A|-5-5-5555-----5-5-5555----7-7-7777--7-7-7777----5-5-5555-x4-----------------------|
E|-3-3-3333-----------------5-5-5555--5-5-5555----3-3-3333--------------------------|
   D D DUDU.........


Chorus (same strum pattern as pre-chorus)

e|-------------------------------------------------------------------------|
B|-------------------------------------------------------------------------|
G|-7-7-7777--7-7-7777----------------------1-1-1111------------------------|
D|-7-7-7777--7-7-7777--9-9-9999--7-7-7777--2-2-2222-x2--5-5-555---8-8-8888-|
A|-5-5-5555--4-4-4444--9-9-9999--7-7-7777--2-2-2222-----5-5-555---8-8-8888-|
E|---------------------7-7-7777--5-5-5555---------------3-3-333---6-6-6666-|

e|-----------------------------------------------------------------------------|
B|-----------------------------------------------------------------------------|
G|-7-7-7777--7-7-7777----------------------1-1-1111----------------------------|
D|-7-7-7777--7-7-7777--9-9-9999--7-7-7777--2-2-2222-x2--5-5-555-----8-8-8888---|
A|-5-5-5555--4-4-4444--9-9-9999--7-7-7777--2-2-2222-----5-5-555-x2--8-8-8888-x2|
E|---------------------7-7-7777--5-5-5555---------------3-3-333-----6-6-6666---|


e|---------------------------------------------------------------------|
B|---------------------------------------------------------------------|
G|------------------------7-7-7777---7-7-7777----------------1-1-1111--|
D|-9-9-9999---9-9-9999-5--7-7-7777---7-7-5555-7--5-5-5555-4--2-2-2222--|
A|-9-9-9999---9-9-9999-5--5-5-5555---5-5-5555-7--5-5-5555-4--2-2-2222--|
E|-7-7-7777---7-7-7777-3----------------------5--3-3-3333-2------------|
   D D DUDU   D D DUDU D  D D DUDU   D D DUDU D  D D DUDU D  D D DUDU

e|-------------------------|
B|-------------------------|
G|-------------------------|
D|-4-4-4444---5------------|
A|-4-4-4444---5-LET IT RING|
E|-2-2-2222---3------------|
   D D DUDU   D

e|---------------------------------------------------|
B|---------------------------------------------------|
G|-7-------7-----------------------1-----------------|
D|-7-Ring--7-Ring--9-------7-------2-Ring----5-------|
A|-5-------4-------9-Ring--7-Ring--2---------5-Ring--|
E|-----------------7-------5-----------------3-------|

e|----------|
B|----------|
G|----------|
D|-8-8-8888-|
A|-8-8-8888-|
E|-6-6-6666-|
   D D DU DU

e|----------------------------------------------|
B|----------------------------------------------|
G|-7-7-7777---7-7-7777--------------------------|
D|-7-7-7777---7-7-7777---9-9-9999----7-7-7777---|
A|-5-5-5555---4-4-4444---9-9-9999----7-7-7777---|
E|-----------------------7-7-7777----5-5-5555---|


e|---------------------------------------|
B|---------------------------------------|
G|-1-1-11-11------------------8-8-88-88--|
D|-2-2-22-22-X2---5-5-55-55---8-8-88-88--|x2
A|-2-2-22-22------5-5-55-55---6-6-66-66--|
E|----------------3-3-33-33--------------|
   D D DU DU      D D DU DU   D D DU DU

e|----------------------------------------------|
B|----------------------------------------------|
G|-7-7-7777---7-7-7777--------------------------|
D|-7-7-7777---7-7-7777---9-9-9999----7-7-7777---|
A|-5-5-5555---4-4-4444---9-9-9999----7-7-7777---|
E|-----------------------7-7-7777----5-5-5555---|


e|---------------------------------------------------|
B|---------------------------------------------------|
G|-1-1-11-11--------------------8-8-88-88------------|
D|-2-2-22-22-X2---5-5-55-55-----8-8-88-88------------|
A|-2-2-22-22------5-5-55-55-x2-----------------------|
E|----------------3-3-33-33-----6-6-6666-------------|
   D D DU DU      D D DU DU   D D DU DU
comments
We did not receive enough feedback on this tab! Please rate:
print report bad tab
1 2 3 4 5
I want to post or [tab]
guest
You may want to rate the tab now too:
select rating
Please do not post tabs as comments. Select "correction" instead!