Oops, an error
Loading. Please wait.

Poison Ivy Tab

version 1
version 1

Whole song

Interactive

22,395 views 3 this week
7 commentsread comments
1 2 3 4 5
excellent!
x 13
add to favorites
launch autoscroll
font size
0
reset
how to read this tab
guitar tuner
Autoscroll
slow
fast
+/-
esc
set tempo
stop
Help us to improve Ultimate-Guitar.com Take our survey!
×
Author
----------------------------------------------------------------------------
                             POISON IVY - JONAS BROTHERS
----------------------------------------------------------------------------
Tabbed by:XxGuitarZer0xX
Email:Spongebobs400s@hotmail.com

Tuning:Standard

This is my first tab. This was learned by ear. If you guys want other tabs like this, 
me or send me a message on youtube. My name on youtube is the same as here, just search 
me.

If this isnt 100% correct.... shoot me!

Video of me playing it -> http://www.youtube.com/watch?v=7AsLPShRFDM


To start off the song they hit a harmonic on the 7th of the b string don/t have to do it though.


(Intro Guitar 1)Part 1
e|--------------------|
B|--------------------|
G|----------5555-7777-|
D|-55555555-5555-7777-|
A|-55555555-3333-5555-|
E|-33333333-----------|

(Intro Guitar 2)Part 1
e|---------------------------|
B|-3h5p3---3h5p3-------3-----|
G|-------4-------4--55---4/2-|
D|---------------------------|Play this 3x
A|---------------------------|
E|---------------------------|

After you play that 3x play this to finnish off the intro

(Intro Both Guitars)Part 2
e|-------|
B|-------|
G|-55-77-|
D|-55-77-|
A|-33-55-|
E|-------|

(Verse Guitar 1)
e|---------------------------------------------------------------------|
B|-----0-----------------------------------------------0---------0-----|
G|-------0-----2-------2-------2-------------------------0---------0---|
D|---------1-1---1-------2-------3-----2-------5-----------------------|
A|---------------------------------3-3---3-6-6---6---------------------|
E|-3-3-------------0-0-----1-1---------------------3-3-----3-3-3-------|
(PALM MUTE ALL OF THIS!)
(Sounds weird but my guitar teacher is never wrong... So its right)
(Play this twice before going into the chorus)


(Chorus Both Guitars)
e|--------------------|
B|--------------------|
G|----------5555-7777-|
D|-55555555-5555-7777-|Play this 3x
A|-55555555-3333-5555-|
E|-33333333-----------|

Then Do This

e|---------------------------------|
B|---------------------------------|
G|----------55-77-88-77------------|
D|-55555555-55-77-88-77-555555555/-|
A|-55555555-33-55-66-55-555555555/-|
E|-33333333-------------333333333/-|


After that Play the Verse the chorus one more time.


The there are a long stream of g notes (PALM MUTED)
e|-----------|
B|-----------|
G|-----------|
D|-55555555--|
A|-55555555--|
E|-33333333--|

leading into this.

Bridge. Guitar 1)(all palm mutes except the note with this symbol ~ )
e|-----------------|
B|-----------------|
G|-----------------|
D|-555555555555-3~-|
A|-555555555555-3~-|
E|-333333333333-1~-|
(play this 4x)

Then play this with no palm mutes

e|----------------------|
B|----------------------|
G|--------------------5-|
D|-555555555555---3---5-|
A|-555555555555---3-3-3-|
E|-333333333333-1-1-----|


You could also play this like sax/ trumpet solo thingy.

e|---------------------------------------------|
B|---------------------------------------------|
G|---------------------------------------------|
D|-3-5-------3-3-5--------3-3-5------3---------|
A|-------5-5----------5-5----------5---5-3-----|
E|-----------------------------------------6-3-|
(This solo is not originally for guitar but it sounds cool on guitar.)

(Pre - Chorus Thingy Both Guitars)
e|-----------------------------------------|
B|-----------------------------------------|
G|-3333\5555\8888\10-10-10-10--------55-77-|
D|-3333\5555\8888\10-10-10-10-5------55-77-|
A|-1111\3333\6666\8--8--8--8--5------33-55-|
E|----------------------------3------------|


--------KEY CHANGE--------


(Chorus Both Guitar)
e|--------------------|
B|--------------------|
G|-88888888-----------|
D|-88888888-6666-8888-|
A|-66666666-6666-8888-|
E|----------4444-6666-|

----SOLO----


(Solo Guitar 1)
e|--------------------------------------------|
B|-11h13h11----11h13p11------------11---------|
G|----------12----------12---13-13----12-8/10-|
D|--------------------------------------------|
A|--------------------------------------------|
E|--------------------------------------------|

e|-------------------------------------------------11h13-13/15-|
B|-11h13p11----11h13p11----------------------11h13-------------|
G|----------12----------12--------------12---------------------|
D|-----------------------------------13---13-------------------|
A|--------------------------13h14h15---------------------------|
E|-------------------------------------------------------------|

(Outro Both Guitars)
E|--------------------------------------------------------------|
B|--------------------------------------------------------------|
G|-88888888-----------88888888--------------------------------8-|
D|-88888888-6666-8888-88888888-66-88-66-88--66--99\88\66---88-8-|
A|-66666666-6666-8888-66666666-66-88-66-88--66--99\88\66---88-6-|
E|----------4444-6666----------44-66-44-66--44--77\66\44---66---|

SO THERE YOU GO THE 100% correct tab so no whining ok!

Copyright - XxGUITARZER0xX (ME)
Suggest correction
What's this?
You can suggest a correction to this tab. Community and Mods will review your correction and vote to approve or reject it.
comments
print report bad tab
7 comments total. Showing first comments.
+1 reply
xxGUITARZER0xx 1,416 wrote on June 20 2009, 08:35 am

Here is a video of me playing 100% correct

here -> http://www.youtube.com/watch?v=7AsLPShRFDM

0 reply
Brendan9x7 20 wrote on July 1 2009, 09:47 am

Nice Tab!

0 reply
DJDangerLove95 12 wrote on July 21 2009, 11:55 pm

Perfect.
Thanks.
: )

guest
You may want to rate the tab now too:
select rating
Please do not post tabs as comments. Select "correction" instead!