Oops, an error
Loading. Please wait.

Poison Ivy Tab

version 2
version 2

Whole song

Interactive

2,449 views 1 this week
1 commentread comment
1 2 3 4 5
1 last vote to show rating
add to favorites
launch autoscroll
font size
0
reset
how to read this tab
guitar tuner
Autoscroll
slow
fast
+/-
esc
set tempo
stop
Help us to improve Ultimate-Guitar.com Take our survey!
×
Author
Poison Ivy – Jonas Brothers

Credit to 'xxGUITARZER0xx' for some parts.
I've tabbed out the individual guitars and altered bits.
So, it's much easier than his tab.
Leave a comment if you have any corrections :D

Intro:
Lead 1:
e|-xx-\0~----------------------------|    |-------------------------|
B|-xx-\0~--3h5p3---3h5p3-------3-----|    |-3h5p3---3h5p3-----------|
G|-xx-\0~--------4-------4--55---4p2-|    |-------4-------4--55-77--|
D|-xx-\0~----------------------------| x3 |------------------55-77--|
A|-xx-\0~----------------------------|    |------------------33-55--|
E|-xx-\0~----------------------------|    |-------------------------|

Lead 2:
e|-xx-\0~-------------------------------|    |-------------------------|
B|-xx-\0~-------------------------------|    |-------------------------|
G|-xx-\0~--7h9p7---7h9p7---------7------|    |-7h9p7---7h9p7----55-77--|
D|-xx-\0~--------9-------9--1010---9p7--| x3 |-------9--------9-55-77--|
A|-xx-\0~-------------------------------|    |------------------33-55--|
E|-xx-\0~-------------------------------|    |-------------------------|

Rhythm:
e|--------------------|    |----------------|
B|--------------------|    |----------------|
G|----------5555-7777-|    |----------55-77-|
D|-55555555-5555-7777-| x3 |-55555555-55-77-|
A|-55555555-3333-5555-|    |-55555555-33-55-|
E|-33333333-----------|    |-33333333-------|

Verse:
e|-------------------------------------------------------------------|    
B|-------------------------------------------------------------------|    
G|----4-----------------------------------------------4---------4----| 
D|------5------7---7--------7------------------5--------5---------5--| x2
A|--------6--6---6---7--------8-------7---6--6---6-------------------|    
E|-3-3------------------0-0------8--8---8----------3-3----3-3-3------|    

Chorus:
e|-xx-\0--------------------|    |-\0~-----------------------------|
B|-xx-\0--------------------|    |-\0~-----------------------------|
G|-xx-\0----------5555-7777-|    |-\0~----------55-99-88-----------|
D|-xx-\0-55555555-5555-7777-| x3 |-\0~-55555555-55-99-88-55555555/-| 
A|-xx-\0-55555555-3333-5555-|    |-\0~-55555555-33-77-66-55555555/-|
E|-xx-\0-33333333-----------|    |-\0~-33333333----------33333333/-|

Verse:
e|--------------------------------------------------------------------|    
B|--------------------------------------------------------------------|    
G|----4----------------------------------------------4--------4-------| 
D|-------5------7---7--------7------------------5--------5--------5---| x2
A|---------6--6---6---7--------8-------7---6--6---6-------------------|    
E|-3-3-------------------0-0------8--8---8----------3-3----3-3-3------| 

Chorus:
e|-xx-\0--------------------|    |-\0~-----------------------------|
B|-xx-\0--------------------|    |-\0~-----------------------------|
G|-xx-\0----------5555-7777-|    |-\0~----------55-99-88-----------|
D|-xx-\0-55555555-5555-7777-| x3 |-\0~-55555555-55-99-88-55555555/-| 
A|-xx-\0-55555555-3333-5555-|    |-\0~-55555555-33-77-66-55555555/-|
E|-xx-\0-33333333-----------|    |-\0~-33333333----------33333333/-|

Bridge:
e|-----------------|    |------------------|
B|-----------------|    |------------------|
G|-----------------|    |----------------5-|
D|-555555555555-3~-| x4 |-555555555555-3-5-| x4
A|-555555555555-3~-|    |-555555555555-3-3-|
E|-333333333333-1~-|    |-333333333333-1---|
  [ Palm Mute ]

Pre-Chorus:
e|----------------------------------|
B|----------------------------------|
G|-3333\5555\8888\10101010----55-77-|
D|-3333\5555\8888\10101010-5~-55-77-|
A|-1111\3333\6666\8-8-8-8--5~-33-55-|
E|-------------------------3~-------|

Chorus:
e|--------------------|    |-\0--------------------|
B|--------------------|    |-\0--------------------|
G|-88888888-----------|    |-\0-88888888-----------|
D|-88888888-6666-8888-| x3 |-\0-88888888-6666-8888-|
A|-66666666-6666-8888-|    |-\0-66666666-6666-8888-|
E|----------4444-6666-|    |-\0----------4444-6666-|

Solo:
Lead 1:
e|--------------------------------------------------------------------|
B|-11h13p11----11h13p11-----------11----------11h13p11----11h13p11----|
G|----------12----------12--13-13----12-8/10-----------12----------12-|
D|--------------------------------------------------------------------|
A|--------------------------------------------------------------------|
E|--------------------------------------------------------------------|

e|------------------------11h13-13/15-|
B|------------------11h13-------------|
G|-------------12---------------------|
D|----------13---13-------------------|
A|-13h14h15---------------------------|
E|------------------------------------|

Lead 2 (optional):
e|-6h8p6---6h8p6-------6--------6h8p6---6h8p6-------------7---------13/15-|
B|-------8-------8-9-9---7------------7-------7---------8---8-11h13-------|
G|-------------------------8/10-----------------8h9h10--------------------|
D|------------------------------------------------------------------------|
A|------------------------------------------------------------------------|
E|------------------------------------------------------------------------|

Rhythm:
e|--------------------|    
B|--------------------|    
G|-88888888-----------|    
D|-88888888-6666-8888-| x2 
A|-66666666-6666-8888-|    
E|----------4444-6666-|    

Chorus:
e|---------------------\0-------------------------------------|
B|---------------------\0-------------------------------------|
G|-88888888------------\0-88888888----------------------------|
D|-88888888-6666-8888--\0-88888888-66-88-66-88-66-99\88\66-88-|
A|-66666666-6666-8888--\0-66666666-66-88-66-88-66-99\88\66-88-|
E|----------4444-6666--\0----------44-66-44-66-44-77\66\44-66-|

Outro:
E|--------|
B|--------|
G|-8~---8-|
D|-8~---8-|
A|-6~---6-|
E|--------|
Suggest correction
Give kudos to tab author, rate the tab!
1 2 3 4 5
comments
print report bad tab
1 comment total.
0 reply
Brendan9x7 10 Jul 01, 2009 09:46 AM

Sorry.... but you stole alot of this from.. xxguitarzer0xx...

the solo is the exact same.... plus the intro is wrong because kevin plays power chords in the intro while nick plays the guitar lead intro.

so sorry its off!

guest
You may want to rate the tab now too:
select rating
Wanna post a correction for this tab? Suggest correction