Oops, an error
Loading. Please wait.

Poor Unfortunate Souls bass

127 views 1 this week
no commentswrite comment
1 2 3 4 5
3 more votes to show rating
add to favorites
×
Save as Personal and add changes to this tab that will be seen only by you. Learn more ›
×
You can save this tab as Personal to edit and correct it or add notes. All changes will be seen only by you. Learn more »
launch autoscroll
font size
0
reset
guitar tuner
edit
Autoscroll
slow
fast
+/-
esc
set tempo
stop
Since the song still doesn't have any bass tabs, I figured I would stand a good chance for it. Let us hope this
works. If timings are needed, I shall write them in if requested.

Song: https://www.youtube.com/watch?v=I3jaMKb8bAo

-------------------------------------------------------------------------------------------------------------

Intro: No Bass

Verse: G|-----------------------------------------------|
       D|-----------------------------------------------|
       A|----------------6~------------------------3h5~-|
       E|-3-6-1~-0-1-3-6----5-3h5-3h5-3h5~-5h6-5h6------|

          I admit that in the past I've been a nasty.

          They weren't kidding when they called me kinda strange

          But you'll find that nowadays, I've mended all my ways

          Repented, seen the light, and made a change.

       G|------------------------------------------------|
       D|-------------------------------------------0/7~-|
       A|----------------6~------------------------3-----|
       E|-3-6-1~-0-1-3-6----5-3h5-3h5-3h5~-5h6-5h6-------|

          And I fortunately know a little secret.

          It's a talent that I always have possessed

          And dear lady, please don't laugh. I use it on behalf

          Of the miserable, lonely, and depressed (pathetic!)

Chorus: G|-----------------------------------------------------------------|
        D|-----------------------------------------------------------------|
        A|-----------------------------------------------------------------|
        E|-3-3-3-3-3-3-3-3-3-3-3-3-3-3-3-3-1-1-1-1-1-1-1-1-3-3-3-3-3-3-3-3-|

           Poor unfortunate souls

           In pain and in need

        G|-----------------------------------------------------------------|
        D|-----------------------------------------------------------------|
        A|-5-5-5-5-5-5-5-5-5-5-5-5-5-5-5-5-6-6-6-6-6-6-6-6-8-8-8-8-8-8-8-8-|
        E|-----------------------------------------------------------------|

           This one longing to be thinner; that one wants to get the girl.

           And do I help them? Yes, indeed!

        G|-----------------------------------------------------------------|
        D|-----------------------------------------------------------------|
        A|-----------------------------------------------------------------|
        E|-6-6-6-6-6-6-6-6-6-6-6-6-6-6-6-6-1-1-1-1-1-1-1-1-3-3-3-3-3-3-3-3-|

           Those poor unfortunate souls

           So sad, so true

        G|------------------------------------|
        D|------------------------------------|
        A|-5-5-5-5-5-5-5-5-5-5-5-5-5-5-5-5-6~-|
        E|------------------------------------|

           They come flocking to me crying, "Will you help us, pretty please?"

           And I help them! Yes I do!

Pre-Verse: No Bass

Verse: G|-----------------------------------------------|
       D|-----------------------------------------------|
       A|----------------6~------------------------3h5~-|
       E|-3-6-1~-0-1-3-6----5-3h5-3h5-3h5~-5h6-5h6------|

          The men up there don't like a lot of blabber

          They think a girl who gossips is a bore!

          Yes on land, it's much preferred for ladies not to say a word.

          And after all dear, what is idle patter for?

       G|-----------------------------------------------|
       D|-----------------------------------------------|
       A|----------------6~------------------------3h5~-|
       E|-3-6-1~-0-1-3-6----5-3h5-3h5-3h5~-5h6-5h6------|

          They're not all that impressed with conversation

          True gentlemen avoid it when they can

          Yet they dote and swoon and fawn on ladies who withdrawn

          It's she who holds her tongue who gets her man.

Chorus: G|-----------------------------------------------------------------|
        D|-----------------------------------------------------------------|
        A|-----------------------------------------------------------------|
        E|-3-3-3-3-3-3-3-3-3-3-3-3-3-3-3-3-1-1-1-1-1-1-1-1-3-3-3-3-3-3-3-3-|

           Poor unfortunate souls

           Go ahead! Make your choice!

        G|-----------------------------------------------------------------|
        D|-----------------------------------------------------------------|
        A|-5-5-5-5-5-5-5-5-5-5-5-5-5-5-5-5-6-6-6-6-6-6-6-6-8-8-8-8-8-8-8-8-|
        E|-----------------------------------------------------------------|

           I'm a very busy person and I haven't got all day

           It won't cost much: just your voice!

        G|-----------------------------------------------------------------|
        D|-----------------------------------------------------------------|
        A|-----------------------------------------------------------------|
        E|-6-6-6-6-6-6-6-6-6-6-6-6-6-6-6-6-1-1-1-1-1-1-1-1-3-3-3-3-3-3-3-3-|

           Those poor unfortunate souls

           So sad, so true

Break: G|-----------------------------------------------------------------|
       D|-----------------------------------------------------------------|
       A|-----------------------------------------------------------------|
       E|-x-x-x-x-x-x-x-x-x-x-x-x-x-x-x-x-x-x-x-x-x-x-x-x-x-x-x-x-x-x-x-x-|

          If you wanna cross the bridge, my sweet. You've got the pay the toll

          Take a gulp. Take a breath. Go ahead. Sign the scroll

       G|-------------------------------------------------|
       D|-------------------------------------------------|
       A|-------------------------------------------------|
       E|-x-x-x-x-x-x-x-x-6-6-6-6-6-6-6-6-6-6-6-6-6-6-6-6-|

          Nick and Kevin. Now I've got her, boys

          The boss is on a roll

Chorus: G|------------------------------------|
        D|------------------------------------|
        A|------------------------------------|
        E|-3~-1-1-1-1-1-1-1-1-3-3-3-3-3-3-3-3-|

           Poor unfortunate souls

           In pain and in need

        G|-----------------------------------------------------------------|
        D|-----------------------------------------------------------------|
        A|-5-5-5-5-5-5-5-5-5-5-5-5-5-5-5-5-6-6-6-6-6-6-6-6-8-8-8-8-8-8-8-8-|
        E|-----------------------------------------------------------------|

           This one longing to be thinner; that one wants to get the girl.

           And do I help them? Yes, indeed!

        G|-----------------------------------------------------------------|
        D|-----------------------------------------------------------------|
        A|-----------------------------------------------------------------|
        E|-6-6-6-6-6-6-6-6-6-6-6-6-6-6-6-6-1-1-1-1-1-1-1-1-3-3-3-3-3-3-3-3-|

           Those poor unfortunate souls

           So sad, so true

        G|-----------------------------------------------------------------|
        D|-----------------------------------------------------------------|
        A|-5-5-5-5-5-5-5-5-5-5-5-5-5-5-5-5-6-6-6-6-6-6-6-6-6-6-6-6-6-6-6-6-|
        E|-----------------------------------------------------------------|

           They come flocking to me crying, "Will you help us, pretty please?"

           And I help them! Yes I do!

Outro G|--------------------------------------------------------------------|
      D|--------------------------------------------------------------------|
      A|-5-5-5-5-5-5-5-5-5-5-5-5-5-5-5-5-5-5-5-5-5-5-5-5-5-5-5-5-5-5-5-5----|
      E|-----------------------------------------------------------------3~-|

         Those poor unfortunate souls!
Suggest correction
Creating personal tab
Creating personal tab
You can edit any tab online and save it as your Personal.

You can edit, replace or remove any tab part or add personal notes – all changes will be seen only by you.

Personal tabs can be accessed anytime from any device, even offline.
Learn more »
Give kudos to tab author, rate the tab!
1 2 3 4 5
comments
print report bad tab
guest
You may want to rate the tab now too:
select rating
Wanna post a correction for this tab? Suggest correction