Oops, an error
Loading. Please wait.

Poor Unfortunate Souls Tab

version 1
version 1

Whole song

9,870 views 9 this week
no commentswrite comment
1 2 3 4 5
accurate
x 3
add to favorites
launch autoscroll
font size
0
reset
how to read this tab
guitar tuner
Autoscroll
slow
fast
+/-
esc
set tempo
stop
Help us to improve Ultimate-Guitar.com Take our survey!
×
Author
All that I could find was the intro for that song so I decided to try to tab the whole 
by myself.
It's the first time that I tab a song so, it may have some mistakes. Oh and it's just 
Nick's plays.

Intro
e|--------------------------------------|
B|--------------------------------------|
G|-------------7-7---------------7-7-7--|
D|-5---8---3---7-7---5---8---3---7-7-7--| x2
A|-5---8---3---5-5---5---8---3---5-5-5--|
E|-5---8---3---------5---8---3----------|
                            ^^Stop here the second time
After playing the intro
e|-10-|
B|----|
G|----|
D|----|
A|----|
E|----|

Verse (Palm mute)
e|---------------|
B|---------------|
G|---------------|
D|-7---9---5---7-|
A|-7---9---5---7-|
E|-5---7---3---5-|

Chorus
e|----------------------------------------------|
B|----------------------------------------------|
G|-------------7---9---10---------------7---9---|
D|-7---9---5---7---9---10---7---9---5---7---9---|
A|-7---9---5---5---7---8----7---9---5---5---7---|
E|-5---7---3----------------5---7---3-----------|

Intro
e|--------------------------------------|
B|--------------------------------------|
G|-------------7-7---------------7-7-7--|
D|-5---8---3---7-7---5---8---3---7-7-7--| x2
A|-5---8---3---5-5---5---8---3---5-5-5--|
E|-5---8---3---------5---8---3----------|
                            ^^Stop here the second time
After playing the intro
e|-10-|
B|----|
G|----|
D|----|
A|----|
E|----|

Verse (Palm mute)
e|---------------|
B|---------------|
G|---------------|
D|-7---9---5---7-|
A|-7---9---5---7-|
E|-5---7---3---5-|

Chorus
e|-------------------------------------|
B|-------------------------------------|
G|-------------7---9---10--------------|
D|-7---9---5---7---9---10---7---9---5--|
A|-7---9---5---5---7---8----7---9---5--|
E|-5---7---3----------------5---7---3--|

Bridge
e|----------|
B|----------|
G|-9--------|
D|-9-x9--7--|
A|-7-----7--|
E|-------5--|

Chorus  / = Slide
e|-------------------------------------------------------|
B|-------------------------------------------------------|
G|-------------------7---9---10---------------7---9---10-|
D|-7---7/9---9---5---7---9---10---7---9---5---7---9---10-|
A|-7---7/9---9---5---5---7---8----7---9---5---5---7---8--|
E|-5---5/7---7---3----------------5---7---3--------------|

Final / = Slide
e|----------------|
B|----------------|
G|----------------|
D|-7---9---5--5/9-|
A|-7---9---5--5/9-|
E|-5---7---3--3/7-|

That's it. That's what I think Nick is playing in the song.
 I'm not good in figuring out solos or notes like that so I didn't try to tab Kevin's part.
Anyway, enjoy ;-). Any correction, let me know.
Suggest correction
Give kudos to tab author, rate the tab!
1 2 3 4 5
comments
print report bad tab
guest
You may want to rate the tab now too:
select rating
Please do not post tabs as comments. Select "correction" instead!