Oops, an error
Loading. Please wait.

Poor Unfortunate Souls Tab

version 2
version 2

Whole song

1,775 views 1 this week
no commentswrite comment
1 2 3 4 5
please rate
add to favorites
launch autoscroll
font size
0
reset
how to read this tab
guitar tuner
Tab Pro tools
  • play this tab
  • loop segment
  • change instrument
  • show fretboard
  • metronome
×
Best way to learn
"Poor Unfortunate Souls"
Autoscroll
slow
fast
+/-
esc
set tempo
stop
Contributor
Difficulty
intermediate
yea "poor unfortunate souls"


updated:Sat. August 4:redid intro verse and chorus bridge
INTRO
e--------------------------------|
b--------------------------------|
g----------7-7------------7-7-7--|
d----------x-x------------x-x-x--| x2
a-5--8--3--5-5---5--8--3--5-5-5--|
E-3--6--1--------3--6--1---------|

e-----|
b-----|
g-7nh-|
d-----|
a-----|
E-----|
(7 is natural harmonic)

VERSE(bass only until...)
e----------------------------------------------------------------|
b----------------------------------------------------------------|
g-----------------------------------7------------7----------7~---|
d-------8--------------8------------------------------------x----|
a-10-10---(x6)---11-11---(x2)---5-5---(x4)---6-6----(x2)----5~---|
E----------------------------------------------------------------|
  *  *           *  *           * *          * *

CHORUS(assuming you downstroke)
e---------------------------------------------|
b---------------------------------------------|
g----------------------------7---------10-----|
d-5--------3--------5--------x---------x------|x2
a-5--------3--------5--------5-(x12)---8-(x4)-|
E-3-(x8)---1-(x4)---3-(x4)--------------------|

repeat everything until after 2nd chorus then add...
e-10-----------------13b-|
b-13b--11~----10~--------|
g------------------------|
d------------------------|
a------------------------|
E------------------------|

that weird thing at end of the bridge goes like:
bridge
e-10--|rhythm (figure rhythm)
b-10--|
g-10--|
d-12--|
a-----|
E-----|

e-10~----(10)--| lead ending
b---10~--(10)--|
g-----7~-(7)---|
d--------------|
a--------------|
E--------------|

end "solo"
e-10-10b-12b-13b/--|
b------------------|
g------------------|figure out timing
d------------------|
a------------------|
E------------------|


legend:
b-bend
(#)-hold out
(x8)-play 8 times (downstroke)
*-palm mute
nh-natural harmonic
comments
We did not receive enough feedback on this tab! Please rate:
print report bad tab
1 2 3 4 5
I want to post or [tab]
guest
You may want to rate the tab now too:
select rating
Please do not post tabs as comments. Select "correction" instead!