Oops, an error
Loading. Please wait.

Poor Unfortunate Souls Tab

version 3
version 3

Whole song

1,459 views 1 this week
no commentswrite comment
1 2 3 4 5
3 more votes to show rating
add to favorites
launch autoscroll
font size
0
reset
how to read this tab
guitar tuner
Autoscroll
slow
fast
+/-
esc
set tempo
stop
Help us to improve Ultimate-Guitar.com Take our survey!
×
heyy :). This is my first tab, it sounds right and i have listened to this song alot of times lol


e--------------------------------|
b--------------------------------|
g----------7-7------------7-7-7--|
d----------x-x------------x-x-x--|  play 2 times
a-5--8--3--5-5---5--8--3--5-5-5--|
E-3--6--1--------3--6--1---------|


e-----|
b-----|
g-7---| pick harmonic
d-----|
a-----|
E-----|


Verse
e-----|
b-----|
g-7---| (play that to the beat of the snare drum until...)
d-x---|
a-5---|
E-----|

e----------------------------------------------------------------|
b----------------------------------------------------------------|
g------------------------------------7--------------7--------7---|
d-------8--------------8-------------------------------------x---|
a-10-10---(x6)---11-11---(x2)---5--5----(x4)---6--6----(x2)--5---|
E----------------------------------------------------------------|
  pm pm          pm pm          pm pm         pm pm 


Chorus
e------------------------------------------------|
b------------------------------------------------|
g----------------------------7------8-----10-----|
d-5--------3--------5--------x------x------x-----|
a-5--------3--------5--------5-(x8)-6(x4)--8-(x4)|
E-3-(x8)---1-(x4)---3-(x4)-----------------------|

e------------------------------------------------|
b------------------------------------------------|
g----------------------------7------8-----7------|
d-8--------3--------5--------x------x-----x------|
a-8--------3--------5--------5-(x8)-6(x4)-5------|
E-6-(x8)---1-(x4)---3-(x4)-----------------------|


play everything above twice until the end of the 2nd chorus 

e-10-------------------------|
b-13b-(x8)--11~---10~---11~--|
g----------------------------|
d----------------------------|
a----------------------------|
E----------------------------|

Bridge
e--------------------------------------|
b--------------------------------------|
g-7------------------------------------| 
d-x-(x-12)---8-(x-8)-5-(let it ring)---|
a-5----------8-------5-----------------|
E------------6-------3-----------------|
             pm
chorus

e----------------------------------------|
b----------------------------------------|
g--------------------7------8-----10-----|
d--3--------5--------x------x------x-----|
a--3--------5--------5-(x8)-6(x4)--8-(x4)|
E--1-(x4)---3-(x4)-----------------------|

e-10--------------13b--13b---|
b-13b-(x8)--11~--------------|
g----------------------------|
d----------------------------|
a----------------------------|
E----------------------------|

e------------------------------------------------|
b------------------------------------------------|
g----------------------------7------8-----7------|
d-8--------3--------5--------x------x-----x------|
a-8--------3--------5--------5-(x8)-6(x4)-5------|
E-6-(x8)---1-(x4)---3-(x4)-----------------------|

end "solo"
e-10(x4)-11(x4)-13(x4)-14(x4)-14b--|
b----------------------------------|
g----------------------------------|
d----------------------------------|
a----------------------------------|
E----------------------------------|


key:
pm= palm mute
B= bend
Suggest correction
Give kudos to tab author, rate the tab!
1 2 3 4 5
comments
print report bad tab
guest
You may want to rate the tab now too:
select rating
Wanna post a correction for this tab? Suggest correction