Oops, an error
Loading. Please wait.

Poor Unfortunate Souls Tab

version 4
version 4

Whole song

1,490 views 1 this week
no commentswrite comment
1 2 3 4 5
please rate
add to favorites
launch autoscroll
font size
0
reset
how to read this tab
guitar tuner
Tab Pro tools
  • play this tab
  • loop segment
  • change instrument
  • show fretboard
  • metronome
×
Best way to learn
"Poor Unfortunate Souls"
Autoscroll
slow
fast
+/-
esc
set tempo
stop
Contributor
Difficulty
novice
Intro:
e------------------------------|     instead of 688xxx you can
B------------------------------|     play x133xx(they sound the same)
G-----------------------7-7----|
D-----5-5---8-8---3-3---x-x----| x3  the second time play x5x7xx three times
A-----5-5---8-8---3-3---5-5----|
E-----3-3---6-6---1-1----------|

e------------------------10r---|
B------------------------------|
G------------------------------|
D-----5-5---8-8---3------------|
A-----5-5---8-8---3------------|
E-----3-3---6-8---1------------|

Verse 1:
only drums and bass (0:16-0:25)
0:26
e--10--------------------------------------|
B------------------------------------------|
G-------7------7-----7-----8---------------|
D-------5-x16--6-x8--7-x16-8-x8------------|
A--------------------5-----6---------------|
E------------------------------------------|


Chorus: 0:37
e-------------------------------------------|
B-------------------------------------------|
G----------------------7------8-----10------|
D---5------3-----5-----7-x16--8-x8--10-x8---|
A---5-x16--3-x8--5-x8--5------6-----8-------|
E---3------1-----3--------------------------|

e-------------------------------------------|
B-------------------------------------------|
G-------------------------------------------|
D---8------7-----5--------------------------|
A---8-x16--7-x8--5-x8-----------------------|
E---6------5-----3--------------------------|

0:53
e--10---------------------------------------|
B-----8b-6-8-11-8-6-------------------------|
G-------------------4bend down--------------|
D-------------------------------------------|
A-------------------------------------------|
E-------------------------------------------|


0:59
e------------------------------|
B------------------------------|
G-----------------------7-7----|
D-----5-5---8-8---3-3---x-x----| x3  the second time play x5x7xx three times
A-----5-5---8-8---3-3---5-5----|
E-----3-3---6-6---1-1----------|

e------------------------10r---|
B------------------------------|
G------------------------------|
D-----5-5---8-8---3------------|
A-----5-5---8-8---3------------|
E-----3-3---6-8---1------------|

Verse 2:
only drums and bass (1:09-1:19)
1:20
e------------------------------------------|
B------------------------------------------|
G--5bend down---7------7-----7-----8-------|
D---------------5-x16--6-x8--7-x16-8-x8----|
A----------------------------5-----6-------|
E------------------------------------------|

Chorus: 1:30
e-------------------------------------------|
B-------------------------------------------|
G----------------------7------8-----10------|
D---5------3-----5-----7-x16--8-x8--10-x8---|
A---5-x16--3-x8--5-x8--5------6-----8-------|
E---3------1-----3--------------------------|

1:40
e-------------------------------------------|
B------11-10-11-----------------------------|
G--16b--------------------------------------|
D-------------------------------------------|
A-------------------------------------------|
E-------------------------------------------|

e-------------------------------------------|
B-------------------------------------------|
G-------------------------------------------|
D---8------7-----5--------------------------|
A---8-x16--7-x8--5-x8-----------------------|
E---6------5-----3--------------------------|

drum and bass for 1:47 to 1:51
1:52
e---10-------------------------------------------------|
B------10----------------------------------------------|
G---------7----------------------7------8-----10-------|
D----------------5/--3-----5-----7-x16--8-x8--10-x8----|
A----------------5/--3-x8--5-x8--5------6-----8--------|
E----------------3/--1-----3---------------------------|

2:06
e-----------15-15---------------------------|
B------11-----------------------------------|
G--16b--------------------------------------|
D-------------------------------------------|
A-------------------------------------------|
E-------------------------------------------|

2:12
e-------------------------------------------|
B-------------------------------------------|
G-12-7b-5-7-10-8-7--x2----------------------|
D-------------------------------------------|
A-------------------------------------------|
E-------------------------------------------|

Outro: 2:17   POOR UNFORTUNATE SOULS!!!!  :)
e---10-x8--11-x4--14-x4--15r----------------|
B-------------------------------------------|
G-------------------------------------------|
A-------------------------------------------|
D-------------------------------------------|
E-------------------------------------------|

    ~enjoy!!!!!!
comments
We did not receive enough feedback on this tab! Please rate:
print report bad tab
1 2 3 4 5
I want to post or [tab]
guest
You may want to rate the tab now too:
select rating
Please do not post tabs as comments. Select "correction" instead!