Oops, an error
Loading. Please wait.

Pushin Me Away Tab

version 1
version 1

Whole song

Interactive

4,014 views 1 this week
no commentswrite comment
1 2 3 4 5
2 more votes to show rating
add to favorites
launch autoscroll
font size
0
reset
how to read this tab
guitar tuner
×
Best way to learn
"Pushin Me Away"
Autoscroll
slow
fast
+/-
esc
set tempo
stop
Difficulty
novice
This is my first tab so please rate! Enoy!
This song is really easy to get. Just listen to the song to pickup strum patterns and 
like that.

The first verse is just the keyboard.

Chorus
e|--------------------------|
B|--------------------------|
G|-5---------7----9----7----|
D|-5-x8-5----7-x8-9-x4-7-x4-| x4
A|-3----5-x8-5----7----5----|
E|------3-------------------|
  "Pushin' me away..."

Verse 2
e|-------|------------------------|
B|-------|------------------------|
G|-9-----|-9----5-----2-----7-----|
D|-9-x17-|-9-x8-5-x16-2-x16-7-x16-|
A|-7-----|-7----3-----0-----5-----|
E|-------|------------------------|
"Stop" pause "tell me the truth..."

Chorus
Bridge
e|---------------------|
B|---------------------|
G|-9----5----2----5----|
D|-9-x8-5-x8-2-x8-5-x8-|
A|-7----3----0----7----|
E|---------------------|

repaet chorus until end of song!
=)
Suggest correction
Give kudos to tab author, rate the tab!
1 2 3 4 5
comments
print report bad tab
guest
You may want to rate the tab now too:
select rating
Wanna post a correction for this tab? Suggest correction