Oops, an error
Loading. Please wait.

Pushin Me Away Tab

version 2
version 2

Whole song

Interactive

2,906 views 1 this week
no commentswrite comment
1 2 3 4 5
please rate
add to favorites
launch autoscroll
font size
0
reset
how to read this tab
guitar tuner
Tab Pro tools
  • play this tab
  • loop segment
  • change instrument
  • show fretboard
  • metronome
×
Best way to learn
"Pushin Me Away"
Autoscroll
slow
fast
+/-
esc
set tempo
stop
Contributor
Yeah I tabbed this by ear, so it may not be 100% correct
but its pretty much close. Just listen close to the song 
for the correct strum pattern. Enjoy!



Intro (Optional)

e|--------------------------------|
B|-------8-7------------8-7-------|
G|-----9-----9--------9-----9-----|   2x
D|---9---------9----9---------9---|
A|-7-------------7----------------|
E|--------------------------------|





Verse

e|-----------------------------------------------------|
B|-----------------------------------------------------|
G|-9999999999999999-5555555555555555-6666666666666666--|   
D|-9999999999999999-5555555555555555-6666666666666666--|
A|-7777777777777777-3333333333333333-4444444444444444--|
E|-----------------------------------------------------|


e-------------------------|
B|------------------------|
G|-77777777----88888888---|   2x
D|-77777777----88888888---|
A|-55555555----66666666---|
E|------------------------|



Chorus

e|-------------------------------------|
B|-------------------------------------|
G|--5555555--------------11--12--11----|   
D|--5555555--5-55-5555---11--12--11----|
A|--3333333--5-55-5555---9---10--9-----|
E|-----------3-33-3333-----------------|


e|-------------------------------------|
B|-------------------------------------|
G|--5555555--------------14--12--11----|   
D|--5555555--5-55-5555---14--12--11----|
A|--3333333--5-55-5555---12--10--9-----|
E|-----------3-33-3333-----------------|


e|-------------------------------------|
B|-------------------------------------|
G|--5555555--------------11--12--11----|   
D|--5555555--5-55-5555---11--12--11----|
A|--3333333--5-55-5555---9---10--9-----|
E|-----------3-33-3333-----------------|



e|---------------------------------------|
B|---------------------------------------|
G|--5555555-------------7-7-77-7-77-77---|   
D|--5555555--5-55-5555--7-7-77-7-77-77---|
A|--3333333--5-55-5555--5-5-55-5-55-55---|
E|-----------3-33-3333-------------------|




e|------------------------|
B|------------------------|
G|-9999999999999999--9----|   
D|-9999999999999999--9----|
A|-7777777777777777--7----|
E|------------------------|

                 

Verse

e|-----------------------------------------------------|
B|-----------------------------------------------------|
G|-9999999999999999-5555555555555555-6666666666666666--|   
D|-9999999999999999-5555555555555555-6666666666666666--|
A|-7777777777777777-3333333333333333-4444444444444444--|
E|-----------------------------------------------------|


e-------------------------|
B|------------------------|
G|-77777777----88888888---|   2x
D|-77777777----88888888---|
A|-55555555----66666666---|
E|------------------------|



Chorus

e|-------------------------------------|
B|-------------------------------------|
G|--5555555--------------11--12--11----|   
D|--5555555--5-55-5555---11--12--11----|
A|--3333333--5-55-5555---9---10--9-----|
E|-----------3-33-3333-----------------|


e|-------------------------------------|
B|-------------------------------------|
G|--5555555--------------14--12--11----|   
D|--5555555--5-55-5555---14--12--11----|
A|--3333333--5-55-5555---12--10--9-----|
E|-----------3-33-3333-----------------|


e|-------------------------------------|
B|-------------------------------------|
G|--5555555--------------11--12--11----|   
D|--5555555--5-55-5555---11--12--11----|
A|--3333333--5-55-5555---9---10--9-----|
E|-----------3-33-3333-----------------|


e|---------------------------------------|
B|---------------------------------------|
G|--5555555-------------7-7-77-7-77-77---|   
D|--5555555--5-55-5555--7-7-77-7-77-77---|
A|--3333333--5-55-5555--5-5-55-5-55-55---|
E|-----------3-33-3333-------------------|


Bridge

e|---------------------------|
B|---------------------------|
G|-9~----5~---------7---8----|   4x
D|-9~----5~----5~---7---8----|
A|-7~----3~----5~---5---6----|
E|-------------3~------------|



Chorus/Outro

e|-------------------------------------|
B|-------------------------------------|
G|--5555555--------------11--12--11----|   
D|--5555555--5-55-5555---11--12--11----|
A|--3333333--5-55-5555---9---10--9-----|
E|-----------3-33-3333-----------------|


e|-------------------------------------|
B|-------------------------------------|
G|--5555555--------------14--12--11----|   
D|--5555555--5-55-5555---14--12--11----|
A|--3333333--5-55-5555---12--10--9-----|
E|-----------3-33-3333-----------------|


e|------------------------------------|
B|------------------------------------|
G|--5-5-55-5------------11--12--11----|   
D|--5-5-55-5--55-5555---11--12--11----|
A|--3-3-33-3--55-5555---9---10--9-----|
E|------------33-3333-----------------|


e|------------------------------------|
B|------------------------------------|
G|--5-5-55-5------------11--12--11----|   
D|--5-5-55-5--55-5555---11--12--11----|
A|--3-3-33-3--55-5555---9---10--9-----|
E|------------33-3333-----------------|


e|-------------------------------------|
B|-------------------------------------|
G|--5555555--------------11--12--11----|   
D|--5555555--5-55-5555---11--12--11----|
A|--3333333--5-55-5555---9---10--9-----|
E|-----------3-33-3333-----------------|


e|-----------------------------------------|
B|-----------------------------------------|
G|--5555555--------------14--12--11----5~--|   
D|--5555555--5-55-5555---14--12--11----5~--|
A|--3333333--5-55-5555---12--10--9-----3~--|
E|-----------3-33-3333---------------------|


Lyrics:

Run, Run like you do
I'm chasing you
I'm on your tail
I'm gaining fast
Your going nowhere
Try to fix what you've done
Turn back the sun
The night is calling
And we're falling faster now

Pushing me away
Every last word, every single thing you say
Pushing me away
You try to stop me now but it's already to late
Pushing me away
If you really don't care then say it to my face
Pushing me away
Push push pushing me away


Stop! Tell me the truth
Cause I'm so confused
Spinning round these walls are falling down and I need you
More than you know, I'm not letting go
I'm getting close, so take my hand
And please just tell me why


Pushing me away
Every last word, every single thing you say
Pushing me away
You try to stop me now but it's already to late
Pushing me away
If you really don't care then say it to my face
Pushing me away
Push push pushing me away

Push push pushing me away
Push push pushing me away
Push push pushing me away
Push push pushing me away
Push push pushing me away
Push push pushing me away
Push push pushing me away

Ooo


Pushing me away
Every last word, every single thing you say
Pushing me away
You try to stop me now but it's already to late
Pushing me away
If you really don't care then say it to my face
Pushing me away
Push push pushing me away

Pushing me away
comments
We did not receive enough feedback on this tab! Please rate:
print report bad tab
1 2 3 4 5
I want to post or [tab]
guest
You may want to rate the tab now too:
select rating
Please do not post tabs as comments. Select "correction" instead!