Oops, an error
Loading. Please wait.

Send It On Tab

version 2
version 2

Whole song

16,261 views 3 this week
1 commentread comment
1 2 3 4 5
please rate
add to favorites
launch autoscroll
font size
0
reset
how to read this tab
guitar tuner
Tab Pro tools
  • play this tab
  • loop segment
  • change instrument
  • show fretboard
  • metronome
×
Best way to learn
"Send It On"
Autoscroll
slow
fast
+/-
esc
set tempo
stop
Contributor
Difficulty
novice
  Send It On – Jonas Brothers, Demi Lovato, Selena Gomez and Miley Cyrus  

There's probably like a million mistakes, but, it's driving me insane.
It sounds reasonably okay, though.
Leave a comment if you have any corrections! :D

Intro:
e|---------------0----0--|
B|----0----0-------------|
G|--------------6----1---|
D|---7----4----6----2----| x2
A|--7----4----4----2-----|
E|-5----2----------------|

Verse:
e|---------------0----0--|    
B|----0-----0------------|    
G|---------2----6----1---|    
D|---7----4----6----2----| x3
A|--7----4----4----2-----|    
E|-5---------------------|    

Chorus:
Guitar 1:
e|----0--------------0--|    |----0------0~--|
B|---------0----0-------|    |---------0-0~--|
G|---7---------2----1---|    |---7-------6~--|
D|--7-----7---4----2----| x3 |--7-----7--7~--|
A|-5-----7---4----2-----|    |-5-----7---7~--|
E|------5---------------|    |------5----5~--|
                                                  or play as power chords.
Guitar 2:
e|-0000-0000-0000-0000--|    |-0000-0000-0~--|
B|-0000-0000-0000-0000--|    |-0000-0000-0~--|
G|-7777-6666-2222-1111--|    |-7777-6666-6~--|
D|-7777-7777-4444-2222--| x3 |-7777-7777-7~--|
A|-5555-7777-4444-2222--|    |-5555-7777-7~--|
E|------5555------0000--|    |------5555-5~--|

Verse:
e|---------------0----0--|    
B|----0-----0------------|    
G|---------2----6----1---|    
D|---7----4----6----2----| x3
A|--7----4----4----2-----|    
E|-5---------------------|    

Chorus:
Guitar 1:
e|----0--------------0--|    |----0-------|
B|---------0----0-------|    |---------0--|
G|---7---------2----1---|    |---7--------|
D|--7-----7---4----2----| x3 |--7-----7---|
A|-5-----7---4----2-----|    |-5-----7----|
E|------5---------------|    |------5-----|
                                                or play as power chords.
Guitar 2:
e|-0000-0000-0000-0000--|    |-0000-0000--|
B|-0000-0000-0000-0000--|    |-0000-0000--|
G|-7777-6666-2222-1111--|    |-7777-6666--|
D|-7777-7777-4444-2222--| x3 |-7777-7777--|
A|-5555-7777-4444-2222--|    |-5555-7777--|
E|------5555------0000--|    |------5555--|

Post-chorus:
Guitar 1:
e|---------0----0----0--|
B|----0-----------------|
G|---2----9----7----7---|
D|--2----9----7----7----| x2
A|-4----7----5----5-----|
E|----------------------|
                                                or play as power chords.
Guitar 2:
e|-0000-0000-00000000-0000-0000-00000000--|
B|-0000-0000-00000000-0000-0000-00000000--|
G|-2222-9999-77777777-2222-9999-77777777--|
D|-4444-9999-77777777-4444-9999-77777777--|
A|-4444-7777-55555555-4444-7777-55555555--|
E|----------------------------------------|

Bridge:
Guitar 1:
e|---------0----0----0--|  |---------------0----0--|
B|----0-----------------|  |-----0----0------------|
G|---2----1----7----7---|  |--------------6----1---|
D|--4----2----7----7----|  |---7----4----6----2----| x2
A|-4----2----5----5-----|  |--7----4----4----2-----|
E|----------------------|  |-5----2----------------|

Guitar 2:
e|-0000-0000-00000000--|  |---------------0----0--|
B|-0000-0000-00000000--|  |----0----0-------------|
G|-2222-1111-77777777--|  |--------------6----1---|
D|-4444-2222-77777777--|  |---7----4----6----2----| x2 
A|-4444-2222-55555555--|  |--7----4----4----2-----|
E|------0000-----------|  |-5----2----------------|

Chorus:
Guitar 1:
e|----0--------------0--|    |----0-------|
B|---------0----0-------|    |---------0--|
G|---7---------2----1---|    |---7--------|
D|--7-----7---4----2----| x3 |--7-----7---|
A|-5-----7---4----2-----|    |-5-----7----|
E|------5---------------|    |------5-----|
                                                or play as power chords.
Guitar 2:                                             PLAY TWICE!
e|-0000-0000-0000-0000--|    |-0000-0000--|
B|-0000-0000-0000-0000--|    |-0000-0000--|
G|-7777-6666-2222-1111--|    |-7777-6666--|
D|-7777-7777-4444-2222--| x3 |-7777-7777--|
A|-5555-7777-4444-2222--|    |-5555-7777--|
E|------5555------0000--|    |------5555--|

Outro:
Guitar 1:
e|----0--------------0--0~--|
B|---------0----0-------0~--|
G|---7---------2----1---6~--|
D|--7-----7---4----2----7~--|
A|-5-----7---4----2-----7~--|
E|------5---------------5~--|
                                  or play as power chords.
Guitar 2:
e|-0000-0000-0000-0000-0~--|
B|-0000-0000-0000-0000-0~--|
G|-7777-6666-2222-1111-6~--|
D|-7777-7777-4444-2222-7~--|
A|-5555-7777-4444-2222-7~--|
E|------5555------0000-5~--|


***OPTIONAL!!!***
In my youtube cover (http://www.youtube.com/watch?v=_zrt0lZfvco), I 
played the chorus differently, here is the tab for that:

e|----0----0-----0----0------0----0-----0----0-|    
B|------0----------0-----------0----------0----|    
G|---7----------------------2----------1-------|    
D|--7-----------7---------4-----------2--------| x3 
A|-5------5----7--------4--------4---2-----2---|    
E|------------5------5-------------------------|    

e|----0----0-----0----0--0~--|
B|------0----------0-----0~--|
G|---7-------------------6~--|
D|--7-----------7--------7~--|
A|-5------5----7---------7~--|
E|------------5------5---5~--|
comments
We did not receive enough feedback on this tab! Please rate:
print report bad tab
1 2 3 4 5
1 comment total.
0 reply
icehawk126 wrote on September 9 2009, 04:12 am

in the vid nick plays it differently......i thnk

I want to post or [tab]
guest
You may want to rate the tab now too:
select rating
Please do not post tabs as comments. Select "correction" instead!