Oops, an error
Loading. Please wait.

Send It On Chords

version 4
version 4
31,710 views 9 this week
2 commentsread comments
1 2 3 4 5
excellent!
x 9
add to favorites
launch autoscroll
font size
0
reset
transpose
0
reset
display chords
guitar tuner
Autoscroll
slow
fast
+/-
esc
set tempo
stop
Help us to improve Ultimate-Guitar.com Take our survey!
×
Author
Difficulty
intermediate
-----------------------------------------------------------------------------
                                "Send It On"
                     Disney Channel Friends For Change
                        Jonas Brothers, Demi Lovato
                        Selena Gomez and Miley Cyrus
-----------------------------------------------------------------------------
Tabbed by:dward19
email: dwayneward@hotmail.com

Okay, I've tried other tabs but they didn't sound right, so i came up with this 
with help from some friends. Hopefully it's good, I think it sounds great.

Standard Tuning for this song, I've never done a tab before, but this sounds 
exactly like the song! so play around with it and you'll see.

Intro(x2): Pick Notes

e|----------------------------------------------------|
B|-------------0----------0-----------5-----------5---|
G|----------2----------2-----------6-----------4------|
D|-------2----------2-----------6-----------2---------|
A|----0----------------------4------------------------|
E|---------------2-----------------------0------------|

Verse 1: Continue to Pick Notes for first verse (3x)

> (1)  a word's      just a word   'till you mean what youu   say
e|--------------------------------------------------------------------|
B|-------------0---------------0----------------5-----------------5---|
G|----------2---------------2----------------6-----------------4------|
D|-------2---------------2----------------6-----------------2---------|
A|----0--------------------------------4------------------------------|
E|--------------------2----------------------------------0------------|
> (2) and love        isn't love      till you give it   awaayyyy
         -                 -                -               -
(3)we've all gotta   yeah, something     to make    a      chaange 
        give,           to give,

Chorus: Strum Chords now

>Send it on         on and on      just one hand can heal another 
         D                 A           F#m                E
e|-------2-----------------0------------2-----------------0------|
B|-------3-----------------2------------2-----------------0------|
G|-------2-----------------2------------2-----------------1------|
D|-------0-----------------2------------4-----------------2------|
A|-------0-----------------0------------4-----------------2------|
E|-------0-----------------0------------2-----------------0------|
> Be a part      reach a heart   just one spark starts the fire

        D                      A              F#m         E
> With one little action, the chain reaction, will never stop

             D                             A
> Make it Strong, Shine a light and send it on

Verse 2: Strum also (3x)

>  Just smile            And The World             Will smile along with you
           (Just Smile)             (and the world)
           A                      F#m                   C#m            E
e|---------0-----------------------2---------------------4-------------0----|
B|---------2-----------------------2---------------------5-------------0----|
G|---------2-----------------------2---------------------6-------------1----|
D|---------2-----------------------4---------------------6-------------2----|
A|---------0-----------------------4---------------------4-------------2----|
E|---------0-----------------------2---------------------0-------------0----|
>  That small              act of love, That's meant for one will become two
 
           A                      F#m                 C#m              E
>If we take the chances, that change circumstances, Imagine all we can do

Repeat chorus
         D          A        F#m                 E
>Send it on, on and on, just one hand can heal another, 
       D             A
>be a part, reach a heart
      F#m                E
>just one spark starts the fire,
      D                      A               F#m        E
>With one little action, the chain reaction, will never stop
         D
>make it strong shine a light and...
  
    >send it ooooo---ooo000nn send it ooo0---000on  
                                              (ooh send it on)
         F#m          E   D          F#m      E            D
e|---------2-----------0---2-----------2------0------------2----------------|
B|---------2-----------0---3-----------2------0------------3----------------|
G|---------2-----------1---2-----------2------1------------2----------------|
D|---------4-----------2---0-----------4------2------------0----------------|
A|---------4-----------2---0-----------4------2------------0----------------|
E|---------2-----------0---0-----------2------0------------0----------------|

Bridge:
  >There's power in all the choices we make,so i'm starting now there's not a
          F#m               C#m                      D       -moment to waste
e|---------2-----------------4-----------------------2----------------------|
B|---------2-----------------5-----------------------3----------------------|
G|---------2-----------------6-----------------------2----------------------|
D|---------4-----------------6-----------------------0----------------------|
A|---------4-----------------4-----------------------0----------------------|
E|---------2-----------------0-----------------------0----------------------|

back to intro (x2)

>      a word's      just a word   'till you mean what youu   say
e|--------------------------------------------------------------------|
B|-------------0---------------0----------------5-----------------5---|
G|----------2---------------2----------------6-----------------4------|
D|-------2---------------2----------------6-----------------2---------|
A|----0--------------------------------4------------------------------|
E|--------------------2----------------------------------0------------|
>     and love        isn't love      till you give it   awaayyyy

         D                       A
>Send it on (Send it on), On and on(on and on) 
      F#m                 E
>Just one hand can heal another 
       D                        A
>Be a part(be a part), Reach a heart 
      F#m                E
>Just one spark starts a fire 
      D                     A 
>With one little action the chain reaction 
      F#m    E
>Will never stop, 
           D                    
>Make it strong, Shine a light 
         A
>and Send it on
        >On and on 
      F#m                 E
>Just one hand can heal another 
      D              A
>Be a part, Reach a heart 
      F#m                 E
>Just one spark starts a fire 
      D                      A
>With one little action the chain reaction 
      F#m       E
>Will help it start, 
          D                              F#m
>Make it strong, Shine a light and send it on 
 
         E                D                               A
>Shine a light and send it on.. Shine a light and send it on..
Suggest correction
What's this?
You can suggest a correction to this tab. Community and Mods will review your correction and vote to approve or reject it.
comments
print report bad tab
2 comments total.
0 reply
thepurplellama 29 wrote on July 24 2010, 08:37 pm

nice tab, thanks:)

0 reply
i-love-music 13 wrote on December 13 2010, 09:53 am

thx
it´s just like in this video
http://www.youtube.com/watch?v=mtZj5iOFjrY

^^

guest
You may want to rate the tab now too:
select rating
Please do not post tabs as comments. Select "correction" instead!