Oops, an error
Loading. Please wait.

Set This Party Off Tab

version 2
version 2

Whole song

7,427 views 1 this week
no commentswrite comment
1 2 3 4 5
excellent!
x 3
add to favorites
launch autoscroll
font size
0
reset
how to read this tab
guitar tuner
Tab Pro tools
  • play this tab
  • loop segment
  • change instrument
  • show fretboard
  • metronome
×
Best way to learn
"Set This Party Off"
Autoscroll
slow
fast
+/-
esc
set tempo
stop
Contributor
Difficulty
novice
                 Set This Party Off - Jonas Brothers

They've only released a preview of the song, so that's all I've tabbed.
When the full song is released, I'll tab out the rest.
Leave a comment, if you have any corrections :D

Intro:
e|-------------------------|
B|-------------------------|
G|-------------------------|
D|-----------------8~--7~--|
A|--5-5------------8~--7~--|
E|-------2-2--3-3--6~--5~--|

Verse:
e|-------------------------|    |----------------------------------------------|
B|-------------------------|    |----------------------------------------------|
G|-------------------------|    |----------------------------------------------|
D|-----------------8~--7~--| x2 |-----------------8/10-----------------8~--7~--|
A|--5-5------------8~--7~--|    |--5-5------------8/10--5-5------------8~--7~--|
E|-------2-2--3-3--6~--5~--|    |-------2-2--3-3--6/8--------2-2--3-3--6~--5~--|

Pre-chorus:
e|------------xxxx--|
B|------------xxxx--|
G|--55555555--xxxx--|
D|--55555555--xxxx--|
A|--33333333--xxxx--|
E|------------xxxx--|

Chorus:
e|--------------|  
B|--------------|    
G|------77------|    
D|--55--77--77--| x4 
A|--55--55--77--|    
E|--33------55--|

Post-chorus:
e|-------------------------|
B|-------------------------|
G|-------------------------|
D|-----------------8~--7~--|
A|--5-5------------8~--7~--|
E|-------2-2--3-3--6~--5~--|  

Verse:
e|-------------------------|    |----------------------------------------------|
B|-------------------------|    |----------------------------------------------|
G|-------------------------|    |----------------------------------------------|
D|-----------------8~--7~--| x2 |-----------------8/10-----------------8~--7~--|
A|--5-5------------8~--7~--|    |--5-5------------8/10--5-5------------8~--7~--|
E|-------2-2--3-3--6~--5~--|    |-------2-2--3-3--6/8--------2-2--3-3--6~--5~--| 

Pre-chorus:
e|------------xxxx--|
B|------------xxxx--|
G|--55555555--xxxx--|
D|--55555555--xxxx--|
A|--33333333--xxxx--|
E|------------xxxx--|

Chorus:
e|--------------|  
B|--------------|    
G|------77------|    
D|--55--77--77--| x4 
A|--55--55--77--|    
E|--33------55--|

Solo:
e|-/10101010-7777\5555555-----------------------|  
B|----------------------------------------------|    
G|--------------------------4444/7777/99999999--|    
D|----------------------------------------------|  
A|----------------------------------------------|    
E|----------------------------------------------|

Bridge:
e|-------------------------------------------------|
B|-------------------------------------------------|
G|---------------------------------------------7~--|
D|-----------------8~--7~------------55555555--7~--|
A|--5-5------------8~--7~--5-5-------55555555--5~--|
E|-------2-2--3-3--6~--5~-------2-2--33333333------|  
                                     ********

Chorus:
e|--------------|    
B|--------------|    
G|------77------|    
D|--55--77--77--| x4 
A|--55--55--77--|    
E|--33------55--|    

e|------------------------|    |----------------------|
B|------------------------|    |----------------------|
G|--7777------------------|    |--7777----------------|
D|--7777--7777--55555555--| x3 |--7777--7777----5555--|
A|--5555--7777--55555555--|    |--5555--7777----5555--|
E|--------5555--33333333--|    |--------5555----3333--|

Outro:
e|-------------------------|
B|-------------------------|
G|-------------------------|
D|-----------------8~--7~--|
A|--5-5------------8~--7~--|
E|-------2-2--3-3--6~--5~--|  
comments
We did not receive enough feedback on this tab! Please rate:
print report bad tab
1 2 3 4 5
I want to post or [tab]
guest
You may want to rate the tab now too:
select rating
Please do not post tabs as comments. Select "correction" instead!