Oops, an error
Loading. Please wait.

Shelf Tab

version 1
version 1

Whole song

Interactive

5,561 views 1 this week
4 commentsread comments
1 2 3 4 5
x 3
add to favorites
launch autoscroll
font size
0
reset
how to read this tab
guitar tuner
Autoscroll
slow
fast
+/-
esc
set tempo
stop
Help us to improve Ultimate-Guitar.com Take our survey!
×
Author
Difficulty
novice
INTRO:
e|-----------12--10-------------------------------------12--10------------------|
B|-------10-----------------------------------------10----------13--------------|
G|-9/10--------------11--11—11h12--11--9------9/10------------------------------|
D|----------------------------------------12------------------------------------|
A|------------------------------------------------------------------------------|
E|------------------------------------------------------------------------------|

e|--------------------------------------------------------------------------------------|
B|-11—11h12--11--9-----------------------------7h8--7--7—7h8----------------------------|
G|------------------12-------7--9--7-----7--9-----------------9--7----------------------|
D|----------------------7/9-----------8-----------------------------9--7----------------|
A|------------------------------------------------------------------------9--7--7--9----|
E|--------------------------------------------------------------------------------------|


VERSE:
e|--------------------------------------|
B|--------------------------------------|
G|--7-----------------------------------|
D|--7-x8---4------5------7------5-------| x2
A|--5------4-x8---5-x8---7-x3---5-x3----|
E|---------2------3------5------3-------|

e|-------------------------------------------------------------|
B|-------------------------------------------------------------|
G|-----------------------7------6------------------------------|
D|--4------9------7------7--x4--6--x4---9-------7-------5~~----|
A|--4-x8---9-x8---7-x8---5------4-------9--x4---7--x4---5~~----|
E|--2------7------5---------------------7-------5-------3~~----|

CHORUS:
e|--------------------------------------------------------------|
B|--------------------------------------------------------------|
G|--7------------------------------4-----------7----------------|
D|--7-x8--7-----8-----9-----10-----5-----5-----7-x8--7-7---5-5--| x2
A|--5-----7-x4--8-x4--9-x8--10-x8--5-x8--5-x8--5-----7-7---5-5--|
E|--------5-----6-----7-----8------3-----3-----------5-5---3-3--|

REPEAT VERSE

REPEAT CHORUS


BRIDGE
e|-----------------------------------------------|
B|-----------------------------------------------|
G|--5-5-5-5-----------7-7---6-6-7---7---7-9-7-6--|
D|--5-5-5-5--5-5-5-5--7-7---6-6-7---7---7-9-7-6--|
A|--3-3-3-3--5-5-5-5--5-5---4-4-5---5---5-7-5-4--|
E|-----------3-3-3-3-----------------------------|

e|-----------------------------------------------------|
B|-----------------------------------------------------|
G|--5-5-5-5-----------7-9-7-9-7-9\---------------------|
D|--5-5-5-5--5-5-5-5--7-9-7-9-7-9\----4-4-4--5~~--7~~--|
A|--3-3-3-3--5-5-5-5--5-7-5-7-5-7\----4-4-4--5~~--7~~--|
E|-----------3-3-3-3------------------2-2-2--3~~--5----|



AFTER BRIDGE CHORUS
e|------------------------------------------------------------------------|
B|----------------------------------------------7-8-7---------------------|
G|----------------------------------7------------------9-7----------------|
D|--------------------------5---5---7------7------------------9-----10----|
A|--5-x8--4-x8--2-x8--3-x8--5---5---5-x8---7-x3---------------9-x8--10-x3-|
E|--------------------------3---3----------5------------------7-----8-----|

e|---------------------------------------------------------------------------|
B|--7--8--7-----------------------------8--7-------------------------8--7----|
G|-----------9--7-----7--9--7-----7--9----------------------------7----------|
D|-----------------9-----------8---------------------7--9---7--9-------------|
A|---------------------------------------------7--9--------------------------|
E|---------------------------------------------------------------------------|

ENDING CHORUS: (strum eight for first 4 chords)
e|----------------------------15--14----------------|
B|------------------------------------15------------|
G|--7-------------------------------------12--11----|
D|--7---7---9---10---5------------------------------|
A|--5---7---9---10---5-x16--------------------------|
E|------5---7---8----3------------------------------|

Thanx  2 youtube users for posting videos to help me with this tab! Plz rate and 
I would like 5 stars! lol!
Suggest correction
Give kudos to tab author, rate the tab!
1 2 3 4 5
comments
print report bad tab
4 comments total. Showing first comments.
0 reply
gurlyrockr96 31 Oct 21, 2008 07:16 PM

im sorry i didnt realize the slide was wrong. its really 9/11

0 reply
exterious 166 Oct 21, 2008 11:46 PM

I made a few corrections to it, including the slides you mentioned and adding some pull-offs i feel are there.
INTRO:
e|-----------12--10-------------------------------------12--10------------------|
B|-------10-----------------------------------------10----------13--------------|
G|-9/11--------------11--11—11h12--11--9------9/11------------------------------|
D|----------------------------------------12------------------------------------|
A|------------------------------------------------------------------------------|
E|------------------------------------------------------------------------------|

e|--------------------------------------------------------------------------------------|
B|-11—11h12--11--9-----------------------------7h8--7--7—8p7----------------------------|
G|------------------12-------7--9--7-----7--9-----------------9p7-----------------------|
D|----------------------7/9-----------8-----------------------------9p7-----------------|
A|------------------------------------------------------------------------7-9-----------|
E|--------------------------------------------------------------------------------------|

0 reply
exterious 166 Oct 21, 2008 11:47 PM

this is the most accurate tab here, even without the corrections. good job!

guest
You may want to rate the tab now too:
select rating
Wanna post a correction for this tab? Suggest correction