Oops, an error
Loading. Please wait.
We have Chord Pro version of Sos.
It's the closest thing you can get to the original song and it has interactive parts. Check out the tab »
×
183,118 views 63 this week
31 commentsread comments
1 2 3 4 5
x 70
add to favorites
×
Save as Personal and add changes to this tab that will be seen only by you. Learn more ›
×
You can save this tab as Personal to edit and correct it or add notes. All changes will be seen only by you. Learn more »
launch autoscroll
font size
0
reset
how to read this tab
guitar tuner
edit
Autoscroll
slow
fast
+/-
esc
set tempo
stop
Author
Difficulty
[Intro]
e|------------------------------------------|
B|------------------------------------------|
G|-----------------5--5--3b-----------------|
D|-----5----5-------------------------------|
A|------------2/3---------------------------|
E|---3----3---------------------------------|

[Verse 1]
e|------------------------------------------|
B|------------------------------------------|
G|-----------------5--5--3b-----------------|
D|-----5----5-------------------------------|
A|------------2/3---------------------------|
E|---3----3---------------------------------|
 (Told you I made dinner plans....)

[Part 2]
(So this is where the story ends
e|------------------------------------------|
B|------------------------------------------|
G|-----------------5--5--3h4-or-3/4---------|
D|-----5----5-------------------------------|
A|------------2/3---------------------------|
E|---3----3---------------------------------|
(You and me and no one else..)

[Part 2]
(A conversation on IM)
e|------------------------------------------|
B|------------------------------------------|
G|-----------------5--5--3b-----------------|
D|-----5----5-------------------------------|
A|------------2/3---------------------------|
E|---3----3---------------------------------|
(That don't include your crazy friends)

 (For the second time you come here skip this part and go to three)
e|----------------------------------------------|
B|----------------------------------------------|
G|------------------7----7----------------------|
D|-----2----2-------------------7----7----------|
A|--------------4/5---5-------------------------|
E|---0----0-----------------4/5----5-----4/5----|
 (Well I'm done...)

 (With awkward situations empty, conversations)
e|------------------------------------------|
B|------------------------------------------|
G|-----------------5--5--3b-----------------|
D|-----5----5-------------------------------|
A|------------2/3---------------------------|
E|---3----3---------------------------------|

 (So this is where the story ends

e|------------------------------------------|
B|------------------------------------------|
G|-----------------5--5--3h4-or-3/4---------|
D|-----5----5-------------------------------|
A|------------2/3---------------------------|
E|---3----3---------------------------------|

 A conversation on IM,
e|----------------------------------------------|
B|----------------------------------------------|
G|------------------7----7----------------------|
D|-----2----2-------------------7----7----------|
A|--------------4/5---5-------------------------|
E|---0----0-----------------4/5----5-----4/5----|
 (Well I'm done...)
 (with texting, Sorry for the miscommunication

[Chorus]
(strum up and down)
e|-----------------------------------------------------|
B|-----------------------------------------------------|
G|--9------------5---------------------------7---------|
D|--9------------5--------------5------------7---------|
A|--7------------3--------------5------------5---------|
E|------------------------------3----------------------|(x2)
 (Ooo This is an SOS don't wanna second guess)
 (This is the bottom line it's truee)
I gave my all for you, now my heart's in two and I cant find the other..

e|-----------------------------------------------------|
B|-----------------------------------------------------|
G|---------------5------------------------7---------5--|
D|--7------------5--------------5---------7--7------5--|
A|--7------------3--------------5---------5--7------3--|
E|--5---------------------------3------------5---------|
Halffff, It's like I'm walking on broken glass, Better believe I bleddd,
 (It's a call I'll never get)

e|------------------------|
B|------------------------|
G|--9---------7-----------|
D|--9---------7---------7-|
A|--7---------5---------7-|
E|----------------------5-|
Next time I see you, I'm giving you a high five...

(The added part to the chorus)
(dont play this part until you did the intro the second time)
(Next time I see you, im giving you a high five)
e|---------------------|
B|---------------------|
G|---5---------7-------|
D|---5---------7-------|
A|---3---------5-------|
E|---------------------|
('Cause hugs are over rated, just FYI)


************************************

| b  Bend
| /  Slide up
| h  Hammer-on

************************************
Suggest correction
Creating personal tab
Creating personal tab
You can edit any tab online and save it as your Personal.

You can edit, replace or remove any tab part or add personal notes – all changes will be seen only by you.

Personal tabs can be accessed anytime from any device, even offline.
Learn more »
comments
print report bad tab
31 comments total. Showing first comments.
+5 reply
skategirl212 10 Dec 04, 2007 10:35 AM

perfect!

+3 reply
iluvjonasgurl 237 Dec 10, 2007 09:56 AM

this is pretty good. it's almost identical to guitarhead27's, only i noticed that one slide that was in there too that
she didn't have put in. awesome tab... gave it five stars!

+2 reply
SchoolFreak2012 10 Dec 18, 2007 04:53 PM

VERY NICE!!!!!

guest
You may want to rate the tab now too:
select rating
Wanna post a correction for this tab? Suggest correction