Oops, an error
Loading. Please wait.

Take A Breath tab

version 1
version 1

Whole song

7,389 views 1 this week
2 commentsread comments
1 2 3 4 5
x 7
add to favorites
×
Save as Personal and add changes to this tab that will be seen only by you. Learn more ›
×
You can save this tab as Personal to edit and correct it or add notes. All changes will be seen only by you. Learn more »
launch autoscroll
font size
0
reset
how to read this tab
guitar tuner
edit
Autoscroll
slow
fast
+/-
esc
set tempo
stop
Author
Verse 1
e|----------------------|
B|----------------------|
G|---------------7------| 
D|--7-----3------7 16x--|x2
A|--7 16x-3 16x--5------|
E|--5-----1-------------|


Pre-Chorus:                     
e|----------------------|
B|----------------------|
G|----------------3-----| 
D|--5------3------3 16x-|
A|--5 16x--3 16x--1-----|
E|--3------1------------|

Chorus
listen for 
strumming pattern
e|--------------|  |--------------------------|
B|--------------|  |--------------------------|
G|--5-----------|  |-5------------------------| 
D|--5--5--7--3--|  |-5 16x-5-----7-----3------|
A|--3--5--7--3--|  |-3-----5 16x-7 16x-3 16x--|
E|-----3--5--1--|  |-------3-----5-----1------|


Verse 2 
Chorus

Bridge
e|--------------------------|
B|--------------------------|
G|----------5---------------| x4
D|--7---3---5---7---3---7---|
A|--7---3---3---7---3---7---|
E|--5---1-------5---1---5---|

1st half of chorus (where nick sings)

Chorus x2


            
            
Suggest correction
Creating personal tab
Creating personal tab
You can edit any tab online and save it as your Personal.

You can edit, replace or remove any tab part or add personal notes – all changes will be seen only by you.

Personal tabs can be accessed anytime from any device, even offline.
Learn more »
comments
print report bad tab
2 comments total.
0 reply
musicbabejb 41 Nov 27, 2007 11:46 AM

awesome tab!
it's very accurate.

0 reply
shernae100 149 Feb 24, 2013 01:07 PM

You did a great job but you forgot one thing.in the chorus after the Gm(3-5-5)
And before the A(5-7-7) there is a G#(4-6-6)

guest
You may want to rate the tab now too:
select rating
Wanna post a correction for this tab? Suggest correction