Oops, an error
Loading. Please wait.

Turn Right tab

version 2
version 2

Whole song

3,710 views 1 this week
no commentswrite comment
1 2 3 4 5
3 more votes to show rating
add to favorites
×
Save as Personal and add changes to this tab that will be seen only by you. Learn more ›
×
You can save this tab as Personal to edit and correct it or add notes. All changes will be seen only by you. Learn more »
launch autoscroll
font size
0
reset
how to read this tab
guitar tuner
edit
Autoscroll
slow
fast
+/-
esc
set tempo
stop
Author
This is the tab for the album version (not studio)
i tried my best, and hope you enjoy it :)

credit to: andreaWHOA (for the bridge)


INTRO & VERSE:
e|-----------------------------------4---------|
B|-------3--------------4---------------4------|
G|-----1-------------3-------------------------|
D|----------------1---------1--3---------------|     x6 both intro & verse
A|---3------4----------------------------------|
E|---------------------------------------------|



CHORUS:
e|-----------------------------------4---------|
B|-------3--------------4---------------4------|
G|-----1-------------3-------------------------|
D|----------------1---------1--3---------------|
A|---3------4----------------------------------|
E|---------------------------------------------|



e|--------------------------------------4------|
B|-----4----------4------------------4---------|
G|----1-------1-----------------1--------------|
D|-----------—---------------------------------|
A|---3--4-------------------4------------------|
E|----------4-----3----------------------------|



- Repeat verse and chorus -

Bridge (Strum the chords)

D     Cadd9  G
I did all I could

 D     Cadd9 G
I gave everything

        Em     D       Cadd9
But you had to go your way

         Em       D       Cadd9
And that road was not for me


Chorus (This last one is strummed)

        G   Cadd9
So turn right

   D       Em
Into my arms

     G  Cadd9
Turn right

        D    Em
You won't be alone

   G  Cadd9
You might

G              D           Cadd9
Fall off those tracks some times

Hope to see you at the finish line




END:

e|-----------------------------------4---------|
B|-------3--------------4---------------4------|
G|-----1-------------3-------------------------|
D|----------------1---------1--3---------------|    
A|---3------4----------------------------------|
E|---------------------------------------------|

Thankyou so much for viewing :D

            
            
Suggest correction
Creating personal tab
Creating personal tab
You can edit any tab online and save it as your Personal.

You can edit, replace or remove any tab part or add personal notes – all changes will be seen only by you.

Personal tabs can be accessed anytime from any device, even offline.
Learn more »
Give kudos to tab author, rate the tab!
1 2 3 4 5
comments
print report bad tab
guest
You may want to rate the tab now too:
select rating
Wanna post a correction for this tab? Suggest correction