Oops, an error
Loading. Please wait.

Video Girl tab

version 3
version 3

Whole song

Interactive

3,214 views 1 this week
no commentswrite comment
1 2 3 4 5
1 last vote to show rating
add to favorites
×
Save as Personal and add changes to this tab that will be seen only by you. Learn more ›
×
You can save this tab as Personal to edit and correct it or add notes. All changes will be seen only by you. Learn more »
launch autoscroll
font size
0
reset
how to read this tab
guitar tuner
edit
Autoscroll
slow
fast
+/-
esc
set tempo
stop
Difficulty
Tabbed by Darby Gilmore
All of the other tabs for this song only included the basic power chords
when they really play whole chords, and none of the others had the solo...so
here's the way it's really played.

Intro: (d-down stroke, u-up stroke)(All notes played staccato)
    ddd duddd duddd du
e|---------------------|
B|--888-88888-88888-88-|
G|--999-99999-99999-99-|
D|--999-99999-99999-99-|
A|--777-77777-77777-77-|
E|---------------------|

Verse: (all notes staccato)       ddddudddd
e|------------------------------------------|
B|--88888888--77777777--55555555--444444444-|
G|--99999999--77777777--55555555--222222222-|
D|--99999999--77777777--55555555--444444444-| (x2)
A|--77777777--55555555--33333333--222222222-|
E|------------------------------------------|

Pre-Chorus: (all notes staccato except the last two)
e|---------------------------------------|
B|--55555--44444--88888--77777--55555--4-|
G|--55555--22222--99999--77777--55555--5-|
D|--55555--44444--99999--77777--55555--5-|
A|--33333--22222--77777--55555--33333--3-|
E|---------------------------------------|

Chorus: (all notes staccato)
    dddudd  dddudd  dddudd  dddudd
e|---------------------------------|
B|--888888--555555--777777--444444-|
G|--999999--555555--777777--222222-|
D|--999999--555555--777777--444444-|(x4)
A|--777777--333333--555555--222222-|
E|---------------------------------|

Bridge:
e|-------------|
B|--8--5--4--7-|
G|--9--4--2--7-|
D|--9--5--4--7-|
A|--7--3--2--5-|
E|-------------|

Solo: (Listen for the rythem)
e|-----------------------------------------------------------|
B|-----------------------------------------------------------|
G|--14b(16slow bend)--12tr(14)-14b(16)--14b(16)-12-----------|
D|-------------------------------------------------14-12-14--|
A|-----------------------------------------------------------|
E|-----------------------------------------------------------|

e|---------------------------------------------------------------------------|
B|--------------------------------------------------12-12-12-13-13-13-15b(17-|
G|-----------9-8-11-9-9-9-11-11-11-12-12-12-14-14-14-------------------------|
D|-------10-9----------------------------------------------------------------|
A|7-9-10---------------------------------------------------------------------|
E|---------------------------------------------------------------------------|


Lyrics
You met in work, you should've known better
It's gonna suck when the camera stops rolling
And you'll find out soon that the treatment wasn't worth it

They're all the same, they all want the money
They're all insane, they live for fame, honey
They laugh at you when you're not even being funny

Well, I've been here before
And I've seen firsthand and front row seat
This little thing they call a video girl

Video girl rocked my world for a whole two seconds
And now I know I'm not about to be another victim

Get out of my face, get out of my space
Get some class and kiss the past
'Cause I'm not about to be another victim
Of the video girl syndrome

You know it's bad when your mama doesn't like her
All your friends sayin' she's a liar
Never ending phone calls aren't enough
It's not enough, it's never enough

Move to LA, got no talent
Not even like you won a Miss Teen pageant
Daddy pays your bills but you still whine

Well, I've been here before
And I've seen firsthand and front row seat
What happens to a man when he gets in the hands of a

Video girl rocked my world for a whole two seconds
And now I know I'm not about to be another victim

Get out of my face, get out of my space
Get some class and kiss the past
'Cause I'm not about to be another victim
Of the video girl syndrome

You are never gonna see me miss her
Video girl syndrome
I'm not gonna be another victim
Of the video girl syndrome

Video girl rocked my world for a whole two seconds
And now I know I'm not about to be another victim

Get out of my face, get out of my space
Get some class and kiss the past
I'm not about to be another victim
Of the video girl syndrome
I won't be a victim
Of the video girl syndrome

            
            
Suggest correction
Creating personal tab
Creating personal tab
You can edit any tab online and save it as your Personal.

You can edit, replace or remove any tab part or add personal notes – all changes will be seen only by you.

Personal tabs can be accessed anytime from any device, even offline.
Learn more »
Give kudos to tab author, rate the tab!
1 2 3 4 5
comments
print report bad tab
guest
Wanna post a correction for this tab? Suggest correction