Oops, an error
Loading. Please wait.

World War Iii tab

version 1
version 1

Whole song

Interactive

15,891 views 3 this week
2 commentsread comments
1 2 3 4 5
x 6
add to favorites
×
Save as Personal and add changes to this tab that will be seen only by you. Learn more ›
×
You can save this tab as Personal to edit and correct it or add notes. All changes will be seen only by you. Learn more »
launch autoscroll
font size
0
reset
how to read this tab
guitar tuner
edit
Autoscroll
slow
fast
+/-
esc
set tempo
stop
Author
                        World War III – Jonas Brothers

Really fun song to play :D
Leave a comment if you have any corrections.

Intro:
e|----------------------------------------|
B|----------------------------------------|
G|-444-44-444-44----------------------3/4-|
D|-444-44-444-44-222-22-222-22-55-5/4-3/4-| x2
A|-222-22-222-22-222-22-222-22-55-5/4-1/2-|
E|---------------000-00-000-00-33-3/2-----|

Verse:
e|-------------------------------------------------------------|     
B|-------------------------------------------------------------|     
G|-----3/4-----3/4-----3/4-----3/4-----3/4-----3/4-----3/4-----|     
D|-5\4-3/4-5\4-3/4-5\4-3/4-5\4-3/4-5\4-3/4-5\4-3/4-5\4-3/4-5\4-| 
A|-5\4-1/2-5\4-1/2-5\4-1/2-5\4-1/2-5\4-1/2-5\4-1/2-5\4-1/2-5\4-|     
E|-3\2-----3\2-----3\2-----3\2-----3\2-----3\2-----3\2-----3\2-|     

Pre-chorus:
e|--------------|
B|--------------|
G|--------------|
D|-2~-5~-2~-5-7-| 
A|-2~-5~-2~-5-7-|
E|-0~-3~-0~-3-5-|

Chorus:
e|----------------------------------------|
B|----------------------------------------|
G|-444-44-444-44----------------------3/4-|
D|-444-44-444-44-222-22-222-22-55-5/4-3/4-| x2
A|-222-22-222-22-222-22-222-22-55-5/4-1/2-|
E|---------------000-00-000-00-33-3/2-----|

Post-Chorus:
e|----------------------------------------|
B|----------------------------------------|
G|-444-44-444-44----------------------3/4-|
D|-444-44-444-44-222-22-222-22-55-5/4-3/4-| x2
A|-222-22-222-22-222-22-222-22-55-5/4-1/2-|
E|---------------000-00-000-00-33-3/2-----|

Verse:
e|---------------------------------|     
B|---------------------------------|     
G|-----3/4-----3/4-----3/4-----3/4-|     
D|-5\4-3/4-5\4-3/4-5\4-3/4-5\4-3/4-| 
A|-5\4-1/2-5\4-1/2-5\4-1/2-5\4-1/2-|     
E|-3\2-----3\2-----3\2-----3\2-----|     

Chorus:
e|----------------------------------------|
B|----------------------------------------|
G|-444-44-444-44----------------------3/4-|
D|-444-44-444-44-222-22-222-22-55-5/4-3/4-| x2
A|-222-22-222-22-222-22-222-22-55-5/4-1/2-|
E|---------------000-00-000-00-33-3/2-----|

Bridge:
e|---------------------------------|
B|---------------------------------|
G|----------------44-44-11---------|
D|-2~-5~-2~-55-77-44-44-22-5\4\3/8-|
A|-2~-5~-2~-55-77-22-22-22-5\4\3/8-|
E|-0~-3~-0~-33-55----------3\2\1/6-|

Chorus:
e|----------------------------------|
B|----------------------------------|
G|-444-44-444-44----------------3/4-|
D|-444-44-444-44-222-22-555-5/4-3/4-| x2
A|-222-22-222-22-222-22-555-5/4-1/2-|
E|---------------000-00-335-3/2-----|

Outro: (Idk about this bit.)
e|--------------------------------------------------------------|
B|--------------------------------------------------------------|
G|-444-44-444-44-------------------------------------4-4/6-4-44-|
D|-444-44-444-44-222-22-2-555-5\4-55-5\4-55-5/7-55-5-4-4/6-4-44-| 
A|-222-22-222-22-222-22-2-555-5\4-55-5\4-55-5/7-55-5-2-2/6-2-22-|
E|---------------000-00-0-333-3\2-33-3\2-33-3/5-33-3------------|

            
            
Suggest correction
Creating personal tab
Creating personal tab
You can edit any tab online and save it as your Personal.

You can edit, replace or remove any tab part or add personal notes – all changes will be seen only by you.

Personal tabs can be accessed anytime from any device, even offline.
Learn more »
comments
print report bad tab
2 comments total.
0 reply
JohnnyCakes101 10 Jul 06, 2009 12:42 PM

woww.. it is fun to play !! :P hahaha.. i love it ! :D .. you did an awesome job at tabbing too! :) thanks !

0 reply
TOMatosauce 73 Dec 12, 2009 11:23 AM

preetty wrong tbh

guest
You may want to rate the tab now too:
select rating
Wanna post a correction for this tab? Suggest correction