Oops, an error
Loading. Please wait.

Year 3000 tab

version 2
version 2

Whole song

Interactive

8,581 views 1 this week
8 commentsread comments
1 2 3 4 5
x 9
add to favorites
×
Save as Personal and add changes to this tab that will be seen only by you. Learn more ›
×
You can save this tab as Personal to edit and correct it or add notes. All changes will be seen only by you. Learn more »
launch autoscroll
font size
0
reset
how to read this tab
guitar tuner
edit
Autoscroll
slow
fast
+/-
esc
set tempo
stop
Author
Difficulty
-------------------------------------------------------------------------------
                             YEAR 3000 - Jonas Brothers
-------------------------------------------------------------------------------
Tabbed by:iluvjonasgurl
Email:

Tuning:standard
This song can be played with two parts--kevins guitar and nicks guitar. it can get
cmplicated!!! but if you really love, and get into the music, you'll get it! if ya like it,
it. if you have any questions or ideas, leave them in the comments.                   
 ---jonasgurl

p.s. listen to the song for strumming--it can get kinda rough. especially in nicks part
the chorus! i strongly suggest you check out the jobros myspace, and watch thier kiss fm
of year 3000. it helped me tab it, so it might help you with the strumming pattern. ;-) 
also suggest playing it along with the cd.
/=slide
x=palm mute(lightly) on the top strig of the chord
()= kevins parts mixed in with nicks.
intro:
e|---------------------------------------------------------------------------|
B|---------------------------------------------------------------------------|
G|---------------------------------------------------------------------------|
D|----------4/5-----------------------------------77---99--------x2----------|
A|---7-7-----------------4/5-----------4/5--------77---99--------------------|
E|----------------7-7------------5-5--------------55---77--------------------|
  Nicks guitar(KEVINS GUITAR)
e|---------------------------------------------------------------------------|
B|---------------------------------------------------------------------------|
G|-----------9999------------------------------------------------------------|
D|---22)-----9999-----99----7777--99999----------------X2--------------------|
A|---22)-----7777-----99----7777--99999--------------------------------------|
E|---00)--------------77----5555--77777--------------------------------------|
(ONCE AGAIN--COMPLICATED! YOU REALLY HAVE TO GET INTO THE MUSIC, AND STUDY IT CLOSELY.)

VERSE ONE: (ONLY KEVIN IS PLAYING)
e|-----------------------------------------------------------------------------|
B|-----------------------------------------------------------------------------|
G|----99-----------------------------------------------------------------------|
D|----99---99---77--5--9------------------X3-----------------------------------|
A|----77---99---77--5--9-----------------------------------------------------9-|
E|---------77---55--7--7-------------------------------------------------------|LYRICS:
NICK; ONE DAY/ WHEN I CAME HOME/ AT LUNCH TIME/ I HEARD A FUNNEY NOISE/
JOE; WENT OUT/ TO THE BACK YARD/ TO FIND OUT/ IF IT  WAS ONE OF THOSE RATTY BOYS/
NICK; STOOD THERE/ WITH THE NIEGHBOOR/ CALLED PETER/ IN A FLUX CAPACITOR

HOOK:( THIS MUSIC IS OPTIONAL--YOU CAN BARELY HEAR IT.)
e|---------------------------------------------------------------------------|
B|---------------------------------------------------------------------------|
G|----9---9---9--------------------------------------------------------------|
D|----9--9--9---9----9---9----7--7-----77--7----77777------------------------|
A|----7---------9-9----9---9--7-----7------7----77777------------------------|
E|--------------7-------------5-----------------55555------------------------|
NICK; HE TOLD ME HE BUILT A TIME MACHINE/ LIKE ONE IN A FILM I'VE SEEN/ YEA!

-ALTERNATIVE: JUST STRUM THE CHORDS.

CHORUS:(NICKS GUITAR)

e|---------------------------------------------------------------------------|
B|---------------------------------------------------------------------------|
G|------99999----------------------------------------------------------------|
D|------99999----9999---77777----77---99-----------X4------------------------|
A|------77777----9999---77777----77---99-------------------------------------|
E|---------------7777---55555----55---77-------------------------------------|
THAT VIDEO ESPECIALLY HELPS RIGHT HERE!!

KEVINS GUITAR:
e|---------------------------------------------------------------------------|
B|---------------------------------------------------------------------------|
G|-----9---------------------------------------------------------------------|
D|---7799--------------------------------------------------------------------|
A|---7779--------------------------------------------------------------------|
E|---55-7--------------------------------------------------------------------|
-LISTEN VERY CAREFULLEY TO FIGURE OUT WHEN TO INSERT THIS. IT IS USUALLY TWARD THE END
NICKS RIFF EACH TIME HE PLAYS IT.

LYRICS:
NICK(JOE ON BACK UP): HE SAID 'VE BEEN TO THE YEAR 3000/ NOT MCH HAS CHANGED/ BUT THEY
UNDER WATER/ AND YOUR GREAT GREAT GREAT GRANDDAUGHTER IS DOIN FINE/ DOIN FINE/

VERSE TWO- SAME AS VERSE ONE
LYRICS;
NICK; HE TOOK ME/ TO THE FUTURE/ IN THE FLUX THING/ AND I SAW EVERYTHING/
JOE; BOY BANDS/ AND ANOTHER ONE/ AND ANOTHER ONE/ AND ANOTHER ONE/
NICK; AND GIRLS THERE/ WITH BROWN HAIR/ LIKE STAR WARS/ FLOAT ABOVE THE FLOOR/

-REPEAT HOOK
-REPEAT CHORUS

BRIDGE:
e|---------------------------------------------------------------------------|
B|---------------------------------------------------------------------------|
G|----99---------------------------------------------------------------------|
D|----99---99--77---7---9-----------X3---------------------------------------|
A|----77---99--77---7---9----------------------------------------------------|
E|---------77--55---5---7----------------------------------------------------|LYRICS:
ALL TOGETHER(NICK JOE AND KEVIN); I TOOK A SHIP TO THE YEAR 3000/ THIS SONG HAD GONE
PLATINUM/ EVERYBODY BOUGHT OUR 7TH ALBUM/ IT HAD OUT SOLD KELLY CLARKSON/ I TOOK A SHIP TO
YEAR 3000/ THIS SONG HAD GONE MULTIPLATINUM/ EVERY BODY BOUGHT OUR 7TH ALBUM/


PLAY THIS CHORD AFTER BRIDGE UNTILL HOOK STARTS:(keep repeating chord)
e|---------------------------------------------------------------------------|
B|---------------------------------------------------------------------------|
G|---------------------------------------------------------------------------|
D|-----2---------------------------------------------------------------------|
A|-----2---------------------------------------------------------------------|
E|-----0---------------------------------------------------------------------|

-hook
-chorus(techno)
play the same em chord untill chorus starts. lightly palm mute this time.
-chorus. this time,kevins part goes like this:
e|-----------------------------------------------------------------------------|
B|-----------------------------------------------------------------------------|
G|------99999------------------------------------------------------------------|
D|------99999----9999---77777----77---99-----------X4--------------------------|
A|------77777----9999---77777----77---99---------------------------------------|
E|---------------7777---55555----55---77---------------------------------------|

last chorus: nick palm mutes this time on his regular parts- kevin plays the abocve riff again.
end.

    let me know if you figure it out!! it was complicated, maybe, but pretty acurate. i
you figure it out! jonas brothers rock like no one else can(!!!) so it's kinda hard! smile.

                                          peace out!!!  --jonasgurl

            
            
Suggest correction
Creating personal tab
Creating personal tab
You can edit any tab online and save it as your Personal.

You can edit, replace or remove any tab part or add personal notes – all changes will be seen only by you.

Personal tabs can be accessed anytime from any device, even offline.
Learn more »
comments
print report bad tab
8 comments total. Showing first comments.
+1 reply
mlongstreth1 31 Dec 22, 2007 08:34 AM

something about this sounds a little rong, but otherwise its pretty good! nice job

+1 reply
iluvjonasgurl 237 Dec 26, 2007 07:05 AM

omg, i am such a doofus! i 4got to add in one of kevs parts, and the palm mutes! sorry
also, listen for variations in
the riffs, i for got those too!

-2 reply
I am punk "BF" 200 Dec 30, 2007 04:24 PM

the intro sounds wrong

guest
You may want to rate the tab now too:
select rating
Wanna post a correction for this tab? Suggest correction