Oops, an error
Loading. Please wait.

Brazo Fuerte Tab

32 views 1 this week
no commentswrite comment
1 2 3 4 5
3 more votes to show rating
add to favorites
launch autoscroll
font size
0
reset
how to read this tab
guitar tuner
×
Best way to learn
"Brazo Fuerte"
Autoscroll
slow
fast
+/-
esc
set tempo
stop
LA Intro es:
  D
e:--------------------------------------------------
B:--------------------------------------------------
G:--7-7-7-6-6-6-6-7-7-7-6-6-6-6-7-7-7-6-6-6---------
D:--7-7-7-7-7-7-7-7-7-7-7-7-7-7-7-7-7-7-7-7--7--5---  x2
A:-------------------------------------------7--5---
E:-------------------------------------------5--3---

D
Cristo es mi brazo fuerte
Bm7
Cristo es mi bandera en alto
G
Él me hace confiar seguro,
Em              A
mia la victoria es          x2

coro:
D              Bm7
No, no temere, si caigo me levantare
G                          Em                A
el rey conmigo esta, esta guerra esta ganada ya      X2

Solo
e:--------5/7-5--5-5-3-2-3-3/5---------------3/5/7-7/10---
B:-7/10-7----------------------3-5-3-5/7-5-3--------------
G:--------------------------------------------------------

D
Cristo es mi brazo fuerte
Bm7
Cristo es mi bandera en alto
G
Él me hace confiar seguro,
Em              A
mia la victoria es          x2

coro:
D              Bm7
No, no temere, si caigo me levantare
G                          Em                A
el rey conmigo esta, esta guerra esta ganada ya      X2

Guitarra:
G:-------------------------------------------------
A:-------------------------------------------------
E:-8-8-7-8-7-8-7-8-10-10-10-7-8-7-8-7-8-10-10-10---

G:-------------------------------------
A:-------------------------------------
E:---7-8-7-8-7-8-10--12/14/16/17-------

D              Bm7
No, no temere, si caigo me levantare
G                          Em                A
el rey conmigo esta, esta guerra esta ganada ya X2

Con su brazo fuerte ...

G:-------------------------------------------------
A:-------------------------------------------------
E:-8-8-7-8-7-8-7-8-10-10-10-7-8-7-8-7-8-10-10-10---

G:-------------------------------------
A:-------------------------------------
E:---7-8-7-8-7-8-10--12/14/16/17-------

Bueno espero que les halla gustado y servido
Dios les bendiga =)
Suggest correction
Give kudos to tab author, rate the tab!
1 2 3 4 5
comments
print report bad tab
guest
You may want to rate the tab now too:
select rating
Wanna post a correction for this tab? Suggest correction