Oops, an error
Loading. Please wait.

All This Time ukulele

229 views 6 this week
2 commentsread comments
1 2 3 4 5
x 3
add to favorites
×
Save as Personal and add changes to this tab that will be seen only by you. Learn more ›
×
You can save this tab as Personal to edit and correct it or add notes. All changes will be seen only by you. Learn more »
launch autoscroll
font size
0
reset
transpose
0
reset
display chords
guitar tuner
edit
Autoscroll
slow
fast
+/-
esc
set tempo
stop
Strumming
There is no strumming pattern for this song yet. and get +5 IQ
[Verse 1]

D
Ten-thousand seven-hundred days
F#m        D
We've been accident-free.
D 
Practice my confident face;
F#m        Em
My pod's depending on me.
G
Working hours fill the day,
Em
Spending credits when we stay
   D
at home.

A|---5-5--5---7-4-|---0-----|---5-5--5---7-4-|---0-----|
E|----------------|-----0-2-|----------------|-----0-2-|
C|----------------|---------|----------------|---------|
G|----7-7---7-----|---------|----7-7---7-----|---------|


[Verse 2]

D
So long since anyone has seen
F#m          D
Out past the edge of our zone.
D
One of the friendlier machines
F#m           Em
Says I should leave it alone.
G
But I wonder anyway
Em
About some things I shouldn't say…

[Chorus]

        A                G
What if Kurzweil doesn't make it?
        D
What if all the switches get struck on destroy?
         F#m                    Bm
When the shuttle goes, we won't take it,
         G
When the final counter-measures are deployed,
Em        D       G
All we'll have is all this time.
Em        D       G
All we'll have is all this time,
         D
All this time.

[Riff]

A|---5-5--5---7-4-|---0-----|---5-5--5---7-4-|---0-----|
E|----------------|-----0-2-|----------------|-----0-2-|
C|----------------|---------|----------------|---------|
G|----7-7---7-----|---------|----7-7---7-----|---------|

[Bridge]

D
Red's for focus, blue's to not get upset.
G
Wasters and complainers get what they get.
Em                                     D
All eyes watching, no one's noticed me yet.

[Verse 3]

D
I'll tell the secret if I speak,
F#m           D
It's what I'm smiling about.
D
I keep it tucked into my cheek,
F#m       Em
'til it's safe to spit out.
G
Things are stranger than they seem,
Em
Now I remember what I dream.

[Chorus]

        A                G
What if Kurzweil doesn't make it?
        D
What if all the switches get struck on destroy?
         F#m                    Bm
When the shuttle goes, we won't take it,
         G
When the final counter-measures are deployed,
Em        D       G
All we'll have is all this time.
Em        D       G
All we'll have is all this time,
Em        D       G
All we'll have is all this time,
         D
All this time.

[Riff]

A|---5-5--5---7-4-|---0-----|---5-5--5---7-4-|---0-----|---5-5--5---7-4-|---0-----|
E|----------------|-----0-2-|----------------|-----0-2-|----------------|-----0-2-|
C|----------------|---------|----------------|---------|----------------|---------|
G|----7-7---7-----|---------|----7-7---7-----|---------|----7-7---7-----|---------|
Suggest correction
Creating personal tab
Creating personal tab
You can edit any tab online and save it as your Personal.

You can edit, replace or remove any tab part or add personal notes – all changes will be seen only by you.

Personal tabs can be accessed anytime from any device, even offline.
Learn more »
Give kudos to tab author, rate the tab!
1 2 3 4 5
comments
print report bad tab
2 comments total.
0 reply
falling_stone 31 Apr 07, 2017 02:19 PM

👍

+1 reply
abdeel4991 10 Apr 15, 2017 09:04 PM

pretty good, thanks

guest
You may want to rate the tab now too:
select rating
Wanna post a correction for this tab? Suggest correction