Oops, an error
Loading. Please wait.

I Feel Fantastic bass

779 views 1 this week
1 commentread comment
1 2 3 4 5
3 more votes to show rating
add to favorites
×
Save as Personal and add changes to this tab that will be seen only by you. Learn more ›
×
You can save this tab as Personal to edit and correct it or add notes. All changes will be seen only by you. Learn more »
launch autoscroll
font size
0
reset
guitar tuner
backing track
0:00
0:00
edit
Autoscroll
slow
fast
+/-
esc
set tempo
stop
Author
Another one of my
tabbed-from-the-chord-pattern bass tabs
And another great song by Jonathan Coulton
Enjoy.


Verse
G|-------------------------|
D|----2222----0000---------|
A|0000----2222-------------|
E|-------------------------| x4

Pre-Chorus
G|----0000---------|
D|2222----0000-----|
A|------------0000-|
E|-----------------|

G|----0000---------|
D|2222----00002222-|
A|-----------------|
E|-----------------|

Chorus
G|-------------------------------|
D|----0022-----0022--44-0000-----|
A|0000----0000-----44-------0000-|
E|-------------------------------|x2

Verse2
G|-------------------------|
D|----2222----0000---------|
A|0000----2222-------------|
E|-------------------------| x4

Pre-Chorus 2
G|----0000---------|
D|2222----0000-----|
A|------------0000-|
E|-----------------|

G|----0000---------|
D|2222----00002222-|
A|-----------------|
E|-----------------|

Chorus 2
G|-------------------------------|
D|----0022-----0022--44-0000-----|
A|0000----0000-----44-------0000-|
E|-------------------------------|x2

Random lil slow bit

No bass here

Verse 3
G|-------------------------|
D|----2222----0000---------|
A|0000----2222-------------|
E|-------------------------| x4

Pre-Chorus 3
G|----0000---------|
D|2222----0000-----|
A|------------0000-|
E|-----------------|

G|----0000---------|
D|2222----00002222-|
A|-----------------|
E|-----------------|

Chorus 3
G|-------------------------------|
D|----0022-----0022--44-0000-----|
A|0000----0000-----44-------0000-|
E|-------------------------------|x2


Thanks for reading this. Great song to play

Tabbed by John Shannon A.K.A. Robotfrom94
Suggest correction
Creating personal tab
Creating personal tab
You can edit any tab online and save it as your Personal.

You can edit, replace or remove any tab part or add personal notes – all changes will be seen only by you.

Personal tabs can be accessed anytime from any device, even offline.
Learn more »
Give kudos to tab author, rate the tab!
1 2 3 4 5
comments
print report bad tab
1 comment total.
0 reply
robotfrom94 314 Oct 01, 2013 05:38 AM

so this was posted eons ago, and since then I realised that it sounds a lot better tuned down an octave, however you need to tune your bass to drop D. Either way is accurate, but i prefer the lower octave

guest
You may want to rate the tab now too:
select rating
Wanna post a correction for this tab? Suggest correction