Oops, an error
Loading. Please wait.

Re Your Brains bass

version 1
version 1

Whole song

Interactive

3,938 views 1 this week
no commentswrite comment
1 2 3 4 5
1 last vote to show rating
add to favorites
×
Save as Personal and add changes to this tab that will be seen only by you. Learn more ›
×
You can save this tab as Personal to edit and correct it or add notes. All changes will be seen only by you. Learn more »
launch autoscroll
font size
0
reset
guitar tuner
backing track
0:00
0:00
edit
Autoscroll
slow
fast
+/-
esc
set tempo
stop
Author
Difficulty
this is purely my own tab
I made up based on the chord pattern.
It might be completely wrong
but I think it sounds pretty cool.

If you listen to the song you'll get it
even though it looks a bit weird
that's just me.

oh, and this song kicks ass.
just thought I mention that

enjoy =D

Verse 1

come in on 'I think I speak...'
G|----------------------------------------|
D|3333----2222------3333----2222----------|
A|----3333----0000------3333----0000------|
E|----------------------------------------|

  'but here's an FYI...'
G|----------------------------------------|
D|3333-2222-2222-[222-222]----------------|
A|---------------triplets-----------------|
E|----------------------------------------|

Chorus1

 'All we want to do...'
G|----------------------------------------|
D|----------------------------------------|
A|33----------33--------------------------|
E|---33-11-33----33-1010101/3-------------|

2nd 'all we want to do...'
G|----------------------------------------|
D|----------------------------------------|
A|33----------00--------------------------|
E|---33-11-33----00-1010101/3-------------|


  'if you open up the doors'
G|---------------5------------------------|
D|3-2-0--3-2-3-5--------------------------|
A|----------------------------------------|
E|----------------------------------------|

Verse 2
  'I don't wanna nitpick tom...'
G|----------------------------------------|
D|-----3333----------------3333-5555-5555-|
A|0000------3333-3322--0000---------------|
E|----------------------------------------|

  'Maybe that's ok for now...'
G|------------------------------0000------|
D|3333-3333-----------0000-0000-----------|
A|----------0000-0000---------------------|
E|----------------------------------------|


  'I'm not surprised...'
G|----------------------------------------|
D|3333----2222------3333----2222----------|
A|----3333----0000------3333----0000------|
E|----------------------------------------|

  'but Tom that's what I do...'
G|----------------------------------------|
D|3333-2222-2222-[222-222]----------------|
A|----------------triplets----------------|
E|----------------------------------------|

Chorus 2

 'All we want to do...'
G|----------------------------------------|
D|----------------------------------------|
A|33----------33--------------------------|
E|---33-11-33----33-1010101/3-------------|

2nd 'all we want to do...'
G|----------------------------------------|
D|----------------------------------------|
A|33----------00--------------------------|
E|---33-11-33----00--1010101/3------------|


  'if you open up the doors'
G|-------------0-1------------------------|
D|3-2-0--3-2-3----------------------------|
A|----------------------------------------|
E|----------------------------------------|

Bridge
' I'd like to help you Tom...'
G|----------------------------------------|
D|1---------------------------------------|
A|--444444444444444444444444--------------|
E|--these are quavers--------44444444-----|

  ' I'm not a monster Tom...'
G|-----------------------------------------|
D|1111-------------------------------------|
A|-----3333----------3---------------------|
E|----------1111-1111----------------------|


Solo:
Same as chorus
then play another verse 1 and chorus 1

Tabbed by John Shannon AKA robotfrom94

            
            
Suggest correction
Creating personal tab
Creating personal tab
You can edit any tab online and save it as your Personal.

You can edit, replace or remove any tab part or add personal notes – all changes will be seen only by you.

Personal tabs can be accessed anytime from any device, even offline.
Learn more »
Give kudos to tab author, rate the tab!
1 2 3 4 5
comments
print report bad tab
guest
You may want to rate the tab now too:
select rating
Wanna post a correction for this tab? Suggest correction