Oops, an error
Loading. Please wait.

Still Alive Bass Tab

version 1
version 1

Whole song

Interactive

230 views 1 this week
no commentswrite comment
1 2 3 4 5
please rate
add to favorites
launch autoscroll
font size
0
reset
guitar tuner
Tab Pro tools
  • play this tab
  • loop segment
  • change instrument
  • show fretboard
  • metronome
×
Best way to learn
"Still Alive"
Autoscroll
slow
fast
+/-
esc
set tempo
stop
Contributor
Difficulty
novice
-------------------------------------------------------------------------------
                             Still Alive - Jonathan Coulton
-------------------------------------------------------------------------------
Tabbed by: Zaqq

Tuning: standard (EADG)

Note: I tabbed it using the bass master track, you can find it here:
      http://www.youtube.com/watch?v=mW2guwio6iI

  Verse 1 (0:44)
 
G|------|
D|------|
A|-17-\-|
E|------|
                                            /   3   \
G|-----------|-----------|-----------|----------------|
D|-----------|-----------|-----------|------7h9-7h9-7-| (very fast hammer-on)
A|-5--5------|-5--5------|-5--5------|-5--5-----------|
E|------7--7-|------7--7-|------7--7-|----------------|

G|-----------|-----------|-----------|-----------|
D|-----------|-----------|-----------|-----------|
A|-5--5------|-5--5------|-5--5------|-5--5------|
E|------7--7-|------7--7-|------7--7-|------7--7-|

                                                  /   3   \
G|--------------|-------------|------------|----------------|
D|--------------|-------------|------------|------7h9-7h9-7-|
A|-7--7-7-9-10--|-0--0-0-2-4--|-5--5-------|-5--5-----------|
E|--------------|-------------|------7--7--|----------------|

G|-----------|-----------|-----------|-----------|
D|-----------|-----------|-----------|-----------|
A|-5--5------|-5--5------|-5--5------|-5--5------|
E|------7--7-|------7--7-|------7--7-|------7--7-|

G|--------------|--------------|-----3---3---|
D|--------------|--------------|-----------2-|
A|-7--7-7-9-10--|-0--0-0-2-4-0-|-1-----------|
E|--------------|--------------|-------------|

  Chorus 1

G|-----------|-----------|-----------|-------------|
D|-3--3------|------3--3-|-3--3------|------3--3---|
A|------3--3-|-1--1------|------3--3-|-1--1------0-|
E|-----------|-----------|-----------|-------------|

G|---------------|-------------|--------------|
D|---------------|-3--2--0-----|-----3------2-|
A|-1--1-1-3--3-3-|----------3--|-1-1----0-0---|
E|---------------|-------------|--------------|

                                            /   3   \
G|-----------|-----------|-----------|----------------|
D|-----------|-----------|-----------|------7h9-7h9-7-|
A|-5--5------|-5--5------|-5--5------|-5--5-----------|
E|------7--7-|------7--7-|------7--7-|----------------|


  Verse 2 (2:00)

G|-----------|-----------|-----------|-----------|
D|-----------|-----------|-----------|-----------|
A|-5--5------|-5--5------|-5--5------|-5--5------|
E|------7--7-|------7--7-|------7--7-|------7--7-|


G|--------------|--------------|-----3---3---|
D|--------------|--------------|-----------2-|
A|-7--7-7-9-10--|-0--0-0-2-4-0-|-1-----------|
E|--------------|--------------|-------------|

  Chorus 2

G|-----------|-----------|-----------|-------------|
D|-3--3------|------3--3-|-3--3------|------3--3---|
A|------3--3-|-1--1------|------3--3-|-1--1------0-|
E|-----------|-----------|-----------|-------------|

G|---------------|-------------|--------------|
D|---------------|-3--2--0-----|-----3------2-|
A|-1--1-1-3--3-3-|----------3--|-1-1----0-0---|
E|---------------|-------------|--------------|

  Outro
                                            /   3   \
G|-----------|-----------|-----------|----------------|
D|-----------|-----------|-----------|------7h9-7h9-7-|  x 3 times
A|-5--5------|-5--5------|-5--5------|-5--5-----------|
E|------7--7-|------7--7-|------7--7-|----------------|

| \  slide down
| h  hammer-on
| /3\  triplet
===============================================================================
comments
We did not receive enough feedback on this tab! Please rate:
print report bad tab
1 2 3 4 5
I want to post or [tab]
guest
You may want to rate the tab now too:
select rating
Please do not post tabs as comments. Select "correction" instead!