Oops, an error
Loading. Please wait.

Got Money Tab

1,309 views 1 this week
no commentswrite comment
1 2 3 4 5
excellent!
x 3
add to favorites
launch autoscroll
font size
0
reset
how to read this tab
guitar tuner
Autoscroll
slow
fast
+/-
esc
set tempo
stop
Help us to improve Ultimate-Guitar.com Take our survey!
×
Author
Difficulty
novice
Jonathan Davis and Jim Root
Got Money
http://www.youtube.com/watch?v=u82bGEQw0oE
Tabbed by: Survivalism

A tuning; 7-string, one step down

Chorus: x8
D|---------------------------------------------------------------|
A|---------------------------------------------------------------|
F|---------------------------------------------------------------|
C|---------------------------------------------------------------|
G|---------------------------------------------------------------|
D|----------------------------------4h5p4h5-------1h2p1h2--------|
A|-0--2--2r---0--2--2r---0--2--2r----------2h3p2h3-------2h3p2h3-|

Verse: x3
D|-----------------------------------------------------------|
A|-----------------------------------------------------------|
F|-----------------------------------------------------------|
C|-----------------------------------------------------------|
G|-----------------------------------------------------------|
D|------------------------------4h5p4h5-------1h2p1h2--------|
A|-0----00000----0--0--0----0-0--------2h3p2h3-------2h3p2h3-|

Then:
D|-----------------|
A|-----------------|
F|-----------------|
C|-----------------|
G|-----------------|
D|-----------------|
A|-0----00000----0-|

D|-----------------------------------------------------------|
A|-----------------------------------------------------------|
F|-----------------------------------------------------------|
C|-----------------------------------------------------------|
G|-----------------------------------------------------------|
D|------------------------------4h5p4h5------1h2p1h2---------|
A|-0----00000----0--0--0----0-0--------2h3p2h3-------2h3p2h3-|

D|-----------------|
A|-----------------|
F|-----------------|
C|-----------------|
G|-----------------|
D|-----------------|
A|-0----00000----0-|

Chorus: x4
D|---------------------------------------------------------------|
A|---------------------------------------------------------------|
F|---------------------------------------------------------------|
C|---------------------------------------------------------------|
G|---------------------------------------------------------------|
D|----------------------------------4h5p4h5-------1h2p1h2--------|
A|-0--2--2r---0--2--2r---0--2--2r----------2h3p2h3-------2h3p2h3-|

Verse: x4
D|-----------------------------------------------------------|
A|-----------------------------------------------------------|
F|-----------------------------------------------------------|
C|-----------------------------------------------------------|
G|-----------------------------------------------------------|
D|------------------------------4h5p4h5-------1h2p1h2--------|
A|-0----00000----0--0--0----0-0--------2h3p2h3-------2h3p2h3-|

Melodic verse background Jim Root-y thing: x2
D|-------14------14--------14---------14-------------|
A|----15-----15--------------------15-------15\13/15-|
F|-16-----------------16--------16-------------------|
C|---------------------------------------------------|
G|---------------------------------------------------|
D|---------------------------------------------------|
A|---------------------------------------------------|

Chorus: x3
D|---------------------------------------------------------------|
A|---------------------------------------------------------------|
F|---------------------------------------------------------------|
C|---------------------------------------------------------------|
G|---------------------------------------------------------------|
D|----------------------------------4h5p4h5-------1h2p1h2--------|
A|-0--2--2r---0--2--2r---0--2--2r----------2h3p2h3-------2h3p2h3-|

Verse: x3
D|-----------------------------------------------------------|
A|-----------------------------------------------------------|
F|-----------------------------------------------------------|
C|-----------------------------------------------------------|
G|-----------------------------------------------------------|
D|------------------------------4h5p4h5-------1h2p1h2--------|
A|-0----00000----0--0--0----0-0--------2h3p2h3-------2h3p2h3-|

Bitch, I'm the bomb like
D|------------------|
A|------------------|
F|------------------|
C|------------------|
G|------------------|
D|------------------|
A|-0----00000----00-|
Tick...tick

Chorus: x4
D|---------------------------------------------------------------|
A|---------------------------------------------------------------|
F|---------------------------------------------------------------|
C|---------------------------------------------------------------|
G|---------------------------------------------------------------|
D|----------------------------------4h5p4h5-------1h2p1h2--------|
A|-0--2--2r---0--2--2r---0--2--2r----------2h3p2h3-------2h3p2h3-|

Outro: x2
D|--------------------------------------------|
A|--------------------------------------------|
F|--------------------------------------------|
C|--------------------------------------------|
G|--------------------------------------------|
D|--------------------------------------1-----|
A|---0----00000----0--0--0----0-0-000-----2h3-|
Suggest correction
Give kudos to tab author, rate the tab!
1 2 3 4 5
comments
print report bad tab
guest
You may want to rate the tab now too:
select rating
Wanna post a correction for this tab? Suggest correction