Oops, an error
Loading. Please wait.

Shanty Tab

5,653 views 1 this week
no commentswrite comment
1 2 3 4 5
1 last vote to show rating
add to favorites
launch autoscroll
font size
0
reset
how to read this tab
guitar tuner
Autoscroll
slow
fast
+/-
esc
set tempo
stop
Help us to improve Ultimate-Guitar.com Take our survey!
×
Author
Difficulty
Tuning
intermediate
D# G# C# F# A# D#
----------------------------------------------------------------------------
                            Shanty – Jonathan Edwards
----------------------------------------------------------------------------
                             Tabbed by: Cade_Nickels


Tuning: ½ down

   G                     G7          N.C.                C
   D u d u u d u d u d   u d u d u   d u d u u d u   d u d d u d
e|-3-3-3-3-3-3-3-3-3-3-|-3-3-3-3-3-|-0-0-0-0-0-0-0-|-0-0-0-0-0-0-|
B|-3-3-3-3-3-3-3-3-3-3-|-3-3-3-3-3-|-0-0-0-0-0-0-0-|-6-6-5-5-5-5-|
G|-6-6-6-6-6-6-6-6-6-6-|-6-6-6-6-6-|-5-5-5-5-5-5-5-|-5-5-5-5-5-5-|
D|-5-5-5-5-5-5-5-5-5-5-|-0-0-0-0-0-|-4-4-4-4-4-4-4-|-4-4-4-4-4-4-|
A|-5-5-5-5-5-5-5-5-5-5-|-5-5-5-5-5-|-3-3-3-3-3-3-3-|-3-3-3-3-3-3-|
E|-3-3-3-3-3-3-3-3-3-3-|-3-3-3-3-3-|-x-x-x-x-x-x-x-|-x-x-x-x-x-x-|


  G        E         A7        N.C.      G         N.C.      N.C.    N.C.
  D u d u  d u d u   d u d u   u d u d   d u d u   d u d u   d u d   u u d u
e|3-3-3-3|-0-0-0-0-|-5-5-5-5-|-0-0-0-0-|-3-3-3-3-|-0-0-0-0-|-0-0-0-|-0-0-0-0|
B|3-3-3-3|-0-0-0-0-|-5-5-5-5-|-0-0-0-0-|-3-3-3-3-|-0-0-0-0-|-0-0-0-|-0-0-0-0|
G|4-4-4-4|-2-2-2-2-|-6-6-6-6-|-5-5-5-5-|-4-4-4-4-|-3-3-3-3-|-6-6-6-|-5-5-5-5|
D|5-5-5-5|-2-2-2-2-|-0-0-0-0-|-4-4-4-4-|-5-5-5-5-|-2-2-2-2-|-5-5-5-|-4-4-4-4|
A|5-5-5-5|-1-1-1-1-|-7-7-7-7-|-5-5-5-5-|-5-5-5-5-|-3-3-3-3-|-6-6-6-|-5-5-5-5|
E|3-3-3-3|-0-0-0-0-|-5-5-5-5-|-0-0-0-0-|-3-3-3-3-|-0-0-0-0-|-0-0-0-|-0-0-0-0|


Gonna sit down in the kitchen
And fix me something good to eat
And make my head a little high
And make this whole day complete
Cuz we gonna lay around the shanty, mama
And put a good buzz on

Well pass it to me baby
Pass it to me slow
We'll take time out to smile a little
Before we let it go
Cuz we gonna lay around the shanty, mama
And put a good buzz on

Well there ain't nothin' to do
And there's always room for more
Fill it, light it, shut up
And close the door
Cuz we gonna lay around the shanty, mama
And put a good buzz on

We gonna sit around the kitchen
Fix us somethin' good to eat
And make ourselves a little high
And make the whole day complete
Cuz we gonna lay around the shanty, mama
And put a good buzz on
Cuz we gonna lay around the shanty, mama
And put a good buzz on



| x  Mute note
============================================================================
                   Learn it. Rate it. Play it.
============================================================================
Suggest correction
Give kudos to tab author, rate the tab!
1 2 3 4 5
comments
print report bad tab
guest
You may want to rate the tab now too:
select rating
Wanna post a correction for this tab? Suggest correction