Oops, an error
Loading. Please wait.

When The Stars Burn Down Chords

455 views 1 this week
2 commentsread comments
1 2 3 4 5
please rate
add to favorites
launch autoscroll
font size
0
reset
transpose
0
reset
simplify chords
display chords
guitar tuner
Autoscroll
slow
fast
+/-
esc
set tempo
stop
Help us to improve Ultimate-Guitar.com Take our survey!
×
Contributor
Difficulty
intermediate
Key of: A
Intro: F#m D A Esus [x2]

Verse 1:
F#m
When the stars burn down and 
D
the earth wears out and 
     A               Esus
we stand before the throne,
    F#m                    D
With the witnesses who have gone before,
          A           Esus
We will rise and all applaud.

Chorus:
             D                     A              F#m         Esus
Singing, "Blessing and honor and glory and power forever to our God." [x2]

             D                     A              F#m          E
Singing, "Blessing and honor and glory and power forever to our God." 

             D                     A              F#m         Esus
Singing, "Blessing and honor and glory and power forever to our God." [x2]

Verse 2:
  A
Star of the morning
  D
Light of salvation
F#m  D
Majesty
 A
God of all mysteries
  D
Lord of the universe
 F#m     D
Righteous king
[repeat]
  D                                A              F#m         Esus
Singing, "Blessing and honor and glory and power forever to our God."

  D                                A              F#m          E
Singing, "Blessing and honor and glory and power forever to our God."

The chords should be like this:
F#min: e|-----------------|
       B|-----------------|
       G|--2--------------|
       D|--4--------------|
       A|--4--------------|
       E|-----------------|

D:     e|-----------------|
       B|--4--------------|
       G|--2--------------|
       D|-----------------|
       A|-----------------|
       E|-----------------|

A:     e|-----------------|
       B|-----------------|
       G|--2--------------|
       D|--2--------------|
       A|-----------------|
       E|-----------------|

Esus:  e|-----------------|
       B|-----------------|
       G|--2--------------|
       D|--2--------------|
       A|--2--------------|
       E|-----------------|
comments
We did not receive enough feedback on this tab! Please rate:
print report bad tab
1 2 3 4 5
2 comments total.
0 reply
LegitGuitarist 37 wrote on December 15 2012, 05:10 pm

those chords are wrong, he explains what they are in his video: http://www.youtube.com/watch?v=0-2Cl3CEFz8, their the right chords but different variations, and the variations on this website dont have the right one's.

0 reply
LegitGuitarist 37 wrote on December 15 2012, 08:30 pm

The chords should be like this:
F#min: e|-----------------|
B|-----------------|
G|--2--------------|
D|--4--------------|
A|--4--------------|
E|-----------------|

D: e|-----------------|
B|--4--------------|
G|--2--------------|
D|-----------------|
A|-----------------|
E|-----------------|

A: e|-----------------|
B|-----------------|
G|--2--------------|
D|--2--------------|
A|-----------------|
E|-----------------|

Esus: e|-----------------|
B|-----------------|
G|--2--------------|
D|--2--------------|
A|--2--------------|
E|-----------------|

I want to post or [tab]
guest
You may want to rate the tab now too:
select rating
Please do not post tabs as comments. Select "correction" instead!