Oops, an error
Loading. Please wait.

Life Is Strange - End Credits Max And Chloe Tab

version 2
version 2

Whole song

  • Can play both lead and accompaniment simultaneously.
118 views 12 this week
no commentswrite comment
1 2 3 4 5
2 more votes to show rating
add to favorites
launch autoscroll
font size
0
reset
how to read this tab
guitar tuner
Autoscroll
slow
fast
+/-
esc
set tempo
stop
Help us to improve Ultimate-Guitar.com Take our survey!
×
Author
Difficulty
intermediate
About this tab version
Can play both lead and accompaniment simultaneously. Was this info helpful? Yes No
---------------------------------------------------------------------------
        Jonathan Morali - Max & Chloe (Life Is Strange Soundtrack)
---------------------------------------------------------------------------

I had listened to this song and picked up the base riff rather easily, so when I saw none of the tabs here
matched what I was playing I thought I'd share my version of it.
The accompanying guitar tabbed here is the one you hear on your right ear if you listen to the song in stereo.
I also managed to include the lead (solo) guitar as well, so you can play both simultaneously. If you can
master the main riff, then the rest gets easier, and it's ok if you miss a 0 or two on the G string during
the verses.
Play it while listening to the song and let me know what you think!

by: Michael K. (my first tab!)
_____________________________________________________________________________


[main riff / Intro] (it repeats many times throughout the song)

  D               D               D               D

e|---------------------------------------------------------------------------|
B|---------------------------------------------------------------------------|
G|--------0---------------0---------------0---------------0------------------|
D|--4---4---4---4---4---4---4---4---4---4---4---4---4---4---4---4------------|
A|5---5-------5---5---5-------5---5---5-------5---5---5-------5--------------|
E|---------------------------------------------------------------------------|

[Verse 1]

  D                                                       G                               D

e|3---------------2---------------0h2---2---------0-------------------------------------------------------|
B|----------------------------------------------------3---3-----------------------0-----------------------|
G|--------0---------------0---------------0-----------------------0-----------------------2-------0-------|
D|--4---4---4---4---4---4---4---4---4---4---4---4---4---4---4---4---4---4---4---4---4---4---4---4---4---4-|
A|5---5-------5---5---5-------5---5---5-------5---5---5-------5-------5-------5---5---5---5---5-------5---|
E|--------------------------------------------------------3---------------3-------------------------------|

Repeat intro:

D               D               D               D

e|------------------------------------------------|
B|------------------------------------------------|
G|--------0---------------0---------------0-------|
D|--4---4---4---4---4---4---4---4---4---4---4---4-|
A|5---5-------5---5---5-------5---5---5-------5---|
E|------------------------------------------------|


[Verse 2]

  D                                     Aadd4                             G                               D

e|3---------------2---------------5--------------------------------------------------------------------------|
B|------------------------------------3---2----------------------/3-------3-------0--------------------------|
G|--------0---------------0-----------------------0-----------------------------------------------0-------2--|
D|--4---4---4---4---4---4---4---4---4---4---4---4---4---4---4---4---4---4---4---4---4---4---4---4---4---4---4|
A|5---5-------5---5---5-------5---5---5---5---5-------5---5---5---5---5-------5-------5---5---5-------5---5--|
E|------------------------------------------------------------------------3----------------------------------|

Repeat intro:

D               D               D               D

e|------------------------------------------------|
B|------------------------------------------------|
G|--------0---------------0---------------0-------|
D|--4---4---4---4---4---4---4---4---4---4---4---4-|
A|5---5-------5---5---5-------5---5---5-------5---|
E|------------------------------------------------|


[Chorus]

  G                                                               D

e|------------------------------------------------2----------------------------------------------------------|
B|0---------------3---------------5-----------------------------------------------3---------------5----------|
G|--------0---------------0---------------0---------------0-------2-------0---------------0---------------0--|
D|--4---4---4---4---4---4---4---4---4---4---4---4---4---4---4---4---4---4---4---4---4---4---4---4---4---4---4|
A|----5-------5-------5-------5-------5-------5---5---5-------5---5---5-------5---5---5-------5---5---5------|
E|3---------------3---------------3--------------------------------------------------------------------------|
                                                                                                          ***

***cont.               G                               Em              F#              D

e|-----2-----------------------------------------------0---------------2------------------------------|
B|---------------------0---------------3--------------------------------------------------------------|
G|-------------0---------------0---------------0---------------0---------------3-------2-------0------|
D|---4---4---4---4---4---4---4---4---4---4---4---4---4---0---0---0---0---4---4---4---4---4---4---4---4|
A|-5---5---5-------5-------5-------5-------5-------5-------2-------2-------4-------4---5---5-------5--|
E|---------------------3---------------3---------------0---------------2------------------------------|


[Outro]

  G               G               Em              F#              Bm              Bm

e|--------------------------------0---------------2-----------------------------------------------|
B|0---------------3---------------------------------------------------------------3---------------|
G|--------0---------------0---------------0---------------3-------4-------4---------------4-------|
D|--4---4---4---4---4---4---4---4---0---0---0---0---4---4---4---4---4---4---4---4---4---4---4---4-|
A|----5-------5-------5-------5-------2-------2-------4-------4---2---2-------2---2---2-------2---|
E|3---------------3---------------0---------------2-----------------------------------------------|

 Bm              Bm              Em               Em              F#              F#              D

e|0---------------2-----------------------------------------------0---------------2--------------------------|
B|--------------------------------0---------------3----------------------------------------------------------|
G|--------4---------------4---------------0---------------0---------------3---------------3-------2-------0--|
D|--4---4---4---4---4---4---4---4---2---2---2---2---2---2---2---2---4---4---4---4---4---4---4---4---4---4---4|
A|2---2-------2---2---2-------2-------2-------2-------2-------2-------4-------4-------4-------4---5---5------|
E|--------------------------------0---------------0---------------2---------------2--------------------------|


After [03:10], you don't play the lead:


  D               D               D               D

e|---------------------------------------------------------------|
B|---------------------------------------------------------------|
G|--------0---------------0---------------0---------------0------|
D|--4---4---4---4---4---4---4---4---4---4---4---4---4---4---4---4|
A|5---5-------5---5---5-------5---5---5-------5---5---5-------5--|
E|---------------------------------------------------------------|

  G               G                D              D

e|-----------------------------------------------------------------|
B|-----------------------------------------------------------------|
G|---------0---------------0---------------0---------------0-------|
D|---4---4---4---4---4---4---4---4---4---4---4---4---4---4---4---4-|
A|-----5-------5-------5-------5---5---5-------5---5---5-------5---|
E|-3---------------3-----------------------------------------------|


************************************

| h   Hammer-on
| /   Slide up

************************************
Suggest correction
Give kudos to tab author, rate the tab!
1 2 3 4 5
comments
print report bad tab
guest
You may want to rate the tab now too:
select rating
Wanna post a correction for this tab? Suggest correction