Oops, an error
Loading. Please wait.

Life Is Strange Ending Credits Acoustic tab

version 2
version 2

Whole song

  • My own version of this tab with links to play along tracks.
1,051 views 21 this week
1 commentread comment
1 2 3 4 5
x 6
add to favorites
×
Save as Personal and add changes to this tab that will be seen only by you. Learn more ›
×
You can save this tab as Personal to edit and correct it or add notes. All changes will be seen only by you. Learn more »
launch autoscroll
font size
0
reset
how to read this tab
guitar tuner
edit
Autoscroll
slow
fast
+/-
esc
set tempo
stop
Author
Difficulty
About this tab version
My own version of this tab with links to play along tracks. Was this info helpful? Yes No
[DISCLAIMER] 
This is not the original song. 
This is my own version of the song in which the background and melodic guitar are merged into one piece. 
The main parts are there but I probably missed some things. In short, this is just a tribute. ;)
   
NOTES:
Want a play along track of this particular tab? Search no further!
full speed:
https://soundcloud.com/poly-liker/0f0e5ds744/s-Lm3F6
Half speed:
https://soundcloud.com/poly-liker/0f0e5ds745/s-MqWpF

Tabbed by: Maxir100


TIPS BEFOREHAND:
Let everything ring. 
The chords used are mostly variations of D, but G, Em and F# are also included. Try to stick to these chords
to make your life easier. 
All the notes are 8th notes(on roughly 160 bpm) so keep those fingers rolling at the same speed at all times. 
If you're relatively new to playing the guitar (or having trouble with it), 
start of at half speed or less if you can't make it, it may sound weird now but as you learn it and speed up
it will sound like in the (full speed) play along track.

Have fun! 


[Intro]

E|---------------------------------|---------------------------------|---------------------------------|
B|-----------------3---------------|-----------------3---------------|-----------------3---------------|
G|-----2-------2-------2-------2---|-----2-------2-------2-------2---|-----2-------2-------2-------2---|
D|-0-------0---------------0-------|-0-------0---------------0-------|-0-------0---------------0-------|
A|---------------------------------|---------------------------------|---------------------------------|
E|---------------------------------|---------------------------------|---------------------------------|


E|---------------------------------|
B|-----------------3---------------|
G|-----2-------2-------2-------2---|
D|-0-------0---------------0-------|
A|---------------------------------|
E|---------------------------------|


And here the fun starts

[Chorus-y/Main part]

E|-3-------------------------------|-2-------------------------------|
B|-----------------3---------------|-----------------3---------------|
G|-----2-------2-------2-------2---|-----2-------2-------2-------2---|
D|-0-------0---------------0-------|-0-------0---------------0-------|
A|---------------------------------|---------------------------------|
E|---------------------------------|---------------------------------|


E|-0-------2-------2---------------|-------------------------0-------|---------------------------------|
B|-----------------3---------------|-----------------3---------------|-3---------------3---------------|
G|-----2-------2-------2-------2---|-----2-------2-------2-------2---|-----2-------2-------2-------2---|
D|-0-------0---------------0-------|-0-------0---------------0-------|-0-------0---------------0-------|
A|---------------------------------|---------------------------------|---------------------------------|
E|---------------------------------|---------------------------------|---------------------------------|


E|---------------------------------|---------------------------------|---------------------------------|
B|-0---------------3---------------|-----------------3---------------|-----------------3---------------|
G|-----2-------2-------2-------2---|-2---2-------2-------2-------2---|-----2-------2-------2-------2---|
D|-0-------0---------------0-------|-0-------0---------------0-------|-0-------0---------------0-------|
A|---------------------------------|---------------------------------|---------------------------------|
E|---------------------------------|---------------------------------|---------------------------------|


E|-3-------------------------------|-2-------------------------------|-5-------------------------------|
B|-----------------3---------------|-----------------3---------------|---------3-------2---------------|
G|-----2-------2-------2-------2---|-----2-------2-------2-------2---|-----2-------2-------2-------2---|
D|-0-------0---------------0-------|-0-------0---------------0-------|-0-------0---------------0-------|
A|---------------------------------|---------------------------------|---------------------------------|
E|---------------------------------|---------------------------------|---------------------------------|


E|---------------------------------|---------------------------------|---------------------------------|
B|-----------------3-------3-------|-3---------------0---------------|-----------------3---------------|
G|-----2-------2-------2-------2---|-----2-------2-------2-------2---|-----2-------2-------2-------2---|
D|-0-------0---------------0-------|-0-------0---------------0-------|-0-------0---------------0-------|
A|---------------------------------|---------------------------------|---------------------------------|
E|---------------------------------|---------------------------------|---------------------------------|

                                                                      TIP: Index Finger A-2 and form a Dsus2 
                                                                      with the rest.
E|---------------------------------|---------------------------------|---------------------------------|
B|-----------------3---------------|-----------------3---------------|-0---------------3---------------|
G|-2---2-------2-------2-------2---|-----2-------2-------2-------2---|-----2-------2-------2-------2---|
D|-0-------0---------------0-------|-0-------0---------------0-------|---------------------------------|
A|---------------------------------|---------------------------------|-2-------2---------------2-------|
E|---------------------------------|---------------------------------|---------------------------------|
                               

                                                                      TIP: Bar the 2nd fret from the D 
                                                                      string with your index finger 
E|---------------------------------|-0-------------------------------|-2-------------------------------|
B|-3---------------3---------------|-----------------3---------------|-----------------3---------------|
G|-----2-------2-------2-------2---|-----2-------2-------2-------2---|-----2-------2-------2-------2---|
D|---------------------------------|-0-------0---------------0-------|-2-------2---------------2-------|
A|-2-------2---------------2-------|---------------------------------|---------------------------------|
E|---------------------------------|---------------------------------|---------------------------------|


E|---------------------------------|---------------------------------|-0-------------------------------|
B|-----------------3---------------|-3---------------3---------------|-----------------3---------------|
G|-2---2-------2-------2-------2---|-----2-------2-------2-------2---|-----2-------2-------2-------2---|
D|-0-------0---------------0-------|-0-------0---------------0-------|-0-------0---------------0-------|
A|---------------------------------|---------------------------------|---------------------------------|
E|---------------------------------|---------------------------------|---------------------------------|


E|-2-------------------------------|---------------------------------|---------------------------------|
B|-----------------3---------------|-0---------------3---------------|-3---------------3---------------|
G|-----2-------2-------2-------2---|-----2-------2-------2-------2---|-----2-------2-------2-------2---|
D|-0-------0---------------0-------|---------------------------------|---------------------------------|
A|---------------------------------|---------------------------------|---------------------------------|
E|---------------------------------|-3-------3---------------3-------|-3-------3---------------3-------|


E|-0---------------0---------------|-2---------------2---------------|---------------------------------|
B|---------------------0-------0---|---------------------2-------2---|-----------------3---------------|
G|-----0-------0-----------0-------|-----3-------3-----------3-------|-2---2-------2-------2-------2---|
D|---------------------------------|---------------------------------|-0-------0---------------0-------|
A|---------------------------------|---------------------------------|---------------------------------|
E|-0-------0-----------------------|-2-------2-----------------------|---------------------------------|


E|---------------------------------|---------------------------------|---------------------------------|
B|-----------------3---------------|-----------------3---------------|-----------------3---------------|
G|-----2-------2-------2---2---2---|-2---2-------2-------2-------2---|-----2-------2-------2-------2---|
D|-0-------0---------------0-------|-0-------0---------------0-------|-0-------0---------------0-------|
A|---------------------------------|---------------------------------|---------------------------------|
E|---------------------------------|---------------------------------|---------------------------------|
                                                                            
                                     Repeat ^this^ as long as you like.


[Outro]

E|---------------------------------|---------------------------------|
B|-----------------3---------------|-----------------3---------------|
G|-----2-------2-------2-------2---|-----2-------2-------2-------2---|
D|-0-------0---------------0-------|-0-------0---------------0-------|
A|---------------------------------|---------------------------------|
E|---------------------------------|---------------------------------|

I don't wanna sound like a jackass but please rate and comment! I would love to hear your 
suggestions and ideas on the tab.
Suggest correction
Creating personal tab
Creating personal tab
You can edit any tab online and save it as your Personal.

You can edit, replace or remove any tab part or add personal notes – all changes will be seen only by you.

Personal tabs can be accessed anytime from any device, even offline.
Learn more »
comments
print report bad tab
1 comment total.
+1 reply
mooglesRcute 20 Oct 26, 2016 01:54 PM

Awesome tribute. SOunds great

guest
You may want to rate the tab now too:
select rating
Wanna post a correction for this tab? Suggest correction