Oops, an error
Loading. Please wait.

The Sweeping Wind Tab

1,034 views 1 this week
no commentswrite comment
1 2 3 4 5
please rate
add to favorites
launch autoscroll
font size
0
reset
how to read this tab
guitar tuner
Autoscroll
slow
fast
+/-
esc
set tempo
stop
Help us to improve Ultimate-Guitar.com Take our survey!
×
Author
-------------------------------------------------------------------------------
  The Sweeping Wind - Jonathan Richman and the Modern Lovers
-------------------------------------------------------------------------------
Tabbed by: ben pattyson

I love this. You gotta play this on acoustic! Cheers.

e|-10-12-10--7-10-7--5-7-5-3--3-5-3--0-3-0-------------------------------------|
B|------------------------------------------3-5-3-0---3-3-3-3-0--5-5-5-5-5s8-5-|
G|-----------------------------------------------------------------------------|
D|-----------------------------------------------------------------------------|
A|-----------------------------------------------------------------------------|
E|-----------------------------------------------------------------------------|

e|-10--7-10-10s12--15-12-10--7-10-10s12-10-7----7-10---10-7-----------10-7-10--|
B|-------------------------------------------10-------------10-8-10------------|
G|-----------------------------------------------------------------------------|
D|-----------------------------------------------------------------------------|
A|-----------------------------------------------------------------------------|
E|-----------------------------------------------------------------------------|

e|-10-7----7---------------------------------------------------------10---|
B|------10---10-8-----8-10-10s12-10--8----8-10-10s12-10--8-8--10-8--------|
G|----------------9--------------------9---------------------------9------|
D|------------------------------------------------------------------------|
A|------------------------------------------------------------------------|
E|------------------------------------------------------------------------|
                                       
e|-12-12-12-12-12--12---10-12-10--7-7-10-7--5-5-7-5--3-3-5-3---0-0-3-0---|
B|-----------------------------------------------------------------------|
G|-----------------------------------------------------------------------|
D|-----------------------------------------------------------------------|
A|-----------------------------------------------------------------------|
E|-----------------------------------------------------------------------|

e|-----------------------------------------------------------------------|
B|--3-5-3--0---3--3-3-0-3--5--5-5s8---3--0-3-5--5s8-5-3--0-3-5-3-0---0-3-|
G|-----------------------------------------------------------------2-----|
D|-----------------------------------------------------------------------|
A|-----------------------------------------------------------------------|
E|-----------------------------------------------------------------------|

e|---------------------------------------------------------------------------|
B|-3-0---------3-0-3---3-3-0-----------------------------------------------3-|
G|-----2-0-2------------------2-0-----0-2-2s4s2-0-----0-2-2s4s2-0-0--2-0-----|
D|--------------------------------2---------------2----------------------2-0-|
A|---------------------------------------------------------------------------|
E|---------------------------------------------------------------------------|

e|-----------------|
B|-5-5-5-5-5--5----|
G|-----------------| repeat all (slight variations here and there)
D|-----------------|
A|-----------------|
E|-----------------|

The other guitar plays a similar thing mainly in unison but also plays chords as well mainly G/Em.

| s  slide 
| h  hammer-on
| p  pull-off
Suggest correction
Give kudos to tab author, rate the tab!
1 2 3 4 5
comments
print report bad tab
guest
You may want to rate the tab now too:
select rating
Please do not post tabs as comments. Select "correction" instead!