Oops, an error
Loading. Please wait.

Seinfeld Theme Bass Tab

910 views 1 this week
no commentswrite comment
1 2 3 4 5
2 more votes to show rating
add to favorites
launch autoscroll
font size
0
reset
guitar tuner
Autoscroll
slow
fast
+/-
esc
set tempo
stop
Help us to improve Ultimate-Guitar.com Take our survey!
×
Author
Difficulty
intermediate
Song: Seinfeld Theme
Tabber: JTrue

s= Slap
p= Pop
h= Hammer on/pull off
~= Let ring
b= Bend

Intro x1

G:0h7-0h4----------------------------|
D:--------7-5------------------------|
A:------------0h5-0h2----------------|
E:--------------------5-3------------|
p p p p s s s s

Verse 1
G:--------------------------------------|
D:----------------------2------------7~-|
A:------25------------------------------|
E:0--0h4----455--3-2-1-0-0-22-3-4-5-----|
s s ss sss s s s sps ss s s s p

G:--------------------------------------|
D:----------------------2------------7~-|
A:------25------------------------------|
E:0--0h4----455--3-2-1-0-0-22-3-4-5-----|
s s ss sss s s s sps ss s s s p

G:---------------------------------------|
D:------1-------------3--------3~--------|
A:----03--0-11-0------------01-----------|
E:1--1-----------4-3-1-1-334-------------|
s sssp s ss s s s sps sssss p

Intro x1

G:0h7-0h4----------------------------|
D:--------7-5------------------------|
A:------------0h5-0h2----------------|
E:--------------------5-3------------|
p p p p s s s s

Verse 2

G:---------------------------------------------|
D:-------2--------------4-------------b4~------|
A:----14----1-22-0-------------b1-b2-----------|
E:2-2--------------4-3-2-2-445-----------------|
s s ss p s ss s s s sps sss s s p

G:---------|
D:-2h0-----|
A:----2h0--|
E:-------3-|
p p s

G:----------------------------------------------|
D:----------------------2------------b5~--------|
A:------25---------------------------------5567-|
E:0--0h4----455--3-2-1-0-0-22-3-4-5-------------|
s s ss sss s s s sps ss s s s p ssss

first tab, let me know what you think?


Jonathan Wolff on wiki:
http://en.wikipedia.org/wiki/Jonathan_Wolff_(musician)
Suggest correction
Give kudos to tab author, rate the tab!
1 2 3 4 5
comments
print report bad tab
guest
You may want to rate the tab now too:
select rating
Wanna post a correction for this tab? Suggest correction